Oops, an error
Loading. Please wait.

Chick Magnet Bass Tab

version 1
version 1

Whole song

Interactive

by MxPx
15,538 views 6 this week
4 commentsread comments
1 2 3 4 5
accurate
x 22
add to favorites
launch autoscroll
font size
0
reset
guitar tuner
Autoscroll
slow
fast
+/-
esc
set tempo
stop
Help us to improve Ultimate-Guitar.com Take our survey!
×
SONG:              			Chick Magnet
ARTIST:            			MxPx
ALBUM:             			Life In General
LYRICS WRITTEN BY:		 	Mike Herrera
MUSIC WRITTEN BY:  			MxPx

UPDATED BY:                (Charliesxe@aol.com)

 main riff  #1  14x
--------------------------------------------|
--------------------------------------------|
---0--h3--2--0------------------------------|
--------------------3---0--h1--0--1--3------|

 #2
----------------------------------------------------|
---------------------2--3--5------------------------|
-------0--h3----------------------------------------|
----------------------------------0--h1--0--1--3----|

 #3
-------------------------------------------------------------------------------|
-----------------------------------3-3--3--3-3--3-3-3--3-----------------------|
-------0-0-0-0-0-0-0-0--------------------------------------0--h3--------------|
-----------------------------------------------------------------------3-------|

 #4
----------------------------------------------------|
----------------------------------------------------|
------0-0-0-0-0-0-0-0-------------------------------|
--------------------------------3-3-3-3-3-3-3-3-----|

 The playing order goes:
      riff 1(14x)- 2(4x)- 3(3x)- 4(1x)- 1(12)- 2(4)- 3(3x)- 4(1x)- 1(8x)--|
2(8x; at the very end, throw in ------------------------------------------| and let it ring.
               -----------------------------------------------------------|
               ---3-------------------------------------------------------|
               -----------------------------------------------------------|
  That's how I play it on my bass.  I've seen some slight variations on it,
but this is pretty much the standard way to play it.
Suggest correction
comments
print report bad tab
4 comments total. Showing first comments.
0 reply
billiejoegoat26 10 wrote on June 6 2003, 12:00 am

i sounds right ot me except i think you have one 2 many beats in the first part, but i could be wrong

0 reply
J0k3r 240 wrote on February 6 2006, 02:40 am

its good, i think it is right

0 reply
J0k3r 240 wrote on February 6 2006, 07:52 am

yep, its perfect, nicely done

guest
You may want to rate the tab now too:
select rating
Please do not post tabs as comments. Select "correction" instead!