Oops, an error
Loading. Please wait.

Chick Magnet Tab

version 6
version 6
by MxPx
6,718 views 12 this week
no commentswrite comment
1 2 3 4 5
excellent!
x 5
add to favorites
launch autoscroll
font size
0
reset
how to read this tab
guitar tuner
Autoscroll
slow
fast
+/-
esc
set tempo
stop
Help us to improve Ultimate-Guitar.com Take our survey!
×
Author
                              Chick Magnet - Mxpx

Tabber: dylandevoe
Standard Tuning...

Legend:

h: Hammer On
~: Let Ring

Intro:

Bass Line:
G|-------------------------|
D|-------------------------|
A|-0-h-3-2-0---------------| x6
E|-----------3-0-h-1-0-1-3-|

 E|--------|
 B|--------|
 G|-5-~~~~-|
 D|-5-~~~~-| x2
 A|-3-~~~~-|
 E|--------|

Verse:
E|---------|
B|---------|
G|---5-----|
D|-----5---| x3 (Form C5)
A|-3-----3-|
E|---------|

Pre-Chorus:
E|-------------------------------------------------------------------------|
B|-------------------------------------------------------------------------|
G|---------5-5-5-5---------5-5-5-5---------5-5-5-5---------5-5-5-5---------|
D|-3-2-3-5-5-5-5-5-3-2-3-5-5-5-5-5-2-2-3-5-5-5-5-5-3-2-3-5-5-5-5-5-3-2-3-5-|
A|-3-2-3-5-3-3-3-3-3-2-3-5-3-3-3-3-3-2-1-5-3-3-3-3-3-2-3-5-3-3-3-3-3-2-3-5-|
E|-1-0-1-3---------1-0-1-3---------1-0-1-3---------1-0-1-3---------1-0-1-3-|

Chorus:
E|-------------------------------------------------------------------------|
B|-------------------------------------------------------------------------|
G|---------------------------------5-----------------------------------5---|
D|-7-7-7-7-7-7-7-7-3-3-3-3-3-3-3-3-5-5-7-7-7-7-7-7-7-7-3-3-3-3-3-3-3-3-5-5-|
A|-7-7-7-7-7-7-7-7-3-3-3-3-3-3-3-3-3-5-7-7-7-7-7-7-7-7-3-3-3-3-3-3-3-3-3-5-|
E|-5-5-5-5-5-5-5-5-1-1-1-1-1-1-1-1---3-5-5-5-5-5-5-5-5-1-1-1-1-1-1-1-1---3-|

E|---------------------------------------------------------------------|
B|---------------------------------------------------------------------|
G|---------------------------------5-----------------------------------|
D|-7-7-7-7-7-7-7-7-3-3-3-3-3-3-3-3-5-5-7-7-7-7-7-7-7-7-5-5-5-5-5-5-5-5-|
A|-7-7-7-7-7-7-7-7-3-3-3-3-3-3-3-3-3-5-7-7-7-7-7-7-7-7-5-5-5-5-5-5-5-3-|
E|-5-5-5-5-5-5-5-5-1-1-1-1-1-1-1-1---3-5-5-5-5-5-5-5-5-3-3-3-3-3-3-3-3-|

Fill:
E|--------|
B|--------|
G|-5-~~~~-|
D|-5-~~~~-| x3
A|-3-~~~~-|
E|--------|

Verse:
E|---------|
B|---------|
G|---5-----|
D|-----5---| x3 (Form C5)
A|-3-----3-|
E|---------|

Pre-Chorus:
E|-------------------------------------------------------------------------|
B|-------------------------------------------------------------------------|
G|---------5-5-5-5---------5-5-5-5---------5-5-5-5---------5-5-5-5---------|
D|-3-2-3-5-5-5-5-5-3-2-3-5-5-5-5-5-2-2-3-5-5-5-5-5-3-2-3-5-5-5-5-5-3-2-3-5-|
A|-3-2-3-5-3-3-3-3-3-2-3-5-3-3-3-3-3-2-1-5-3-3-3-3-3-2-3-5-3-3-3-3-3-2-3-5-|
E|-1-0-1-3---------1-0-1-3---------1-0-1-3---------1-0-1-3---------1-0-1-3-|

Chorus:
E|-------------------------------------------------------------------------|
B|-------------------------------------------------------------------------|
G|---------------------------------5-----------------------------------5---|
D|-7-7-7-7-7-7-7-7-3-3-3-3-3-3-3-3-5-5-7-7-7-7-7-7-7-7-3-3-3-3-3-3-3-3-5-5-|
A|-7-7-7-7-7-7-7-7-3-3-3-3-3-3-3-3-3-5-7-7-7-7-7-7-7-7-3-3-3-3-3-3-3-3-3-5-|
E|-5-5-5-5-5-5-5-5-1-1-1-1-1-1-1-1---3-5-5-5-5-5-5-5-5-1-1-1-1-1-1-1-1---3-|

E|---------------------------------------------------------------------|
B|---------------------------------------------------------------------|
G|---------------------------------5-----------------------------------|
D|-7-7-7-7-7-7-7-7-3-3-3-3-3-3-3-3-5-5-7-7-7-7-7-7-7-7-5-5-5-5-5-5-5-5-|
A|-7-7-7-7-7-7-7-7-3-3-3-3-3-3-3-3-3-5-7-7-7-7-7-7-7-7-5-5-5-5-5-5-5-3-|
E|-5-5-5-5-5-5-5-5-1-1-1-1-1-1-1-1---3-5-5-5-5-5-5-5-5-3-3-3-3-3-3-3-3-|

Bridge:
E|--------|
B|--------|
G|-5-~~~~-|
D|-5-~~~~-| x2
A|-3-~~~~-|
E|--------|

Pick Scrap...

Outro:
E|-------------------------------------------------------------------------|
B|-------------------------------------------------------------------------|
G|---------5-5-5-5---------5-5-5-5---------5-5-5-5---------5-5-5-5---------|
D|-3-2-3-5-5-5-5-5-3-2-3-5-5-5-5-5-2-2-3-5-5-5-5-5-3-2-3-5-5-5-5-5-3-2-3-5-|
A|-3-2-3-5-3-3-3-3-3-2-3-5-3-3-3-3-3-2-1-5-3-3-3-3-3-2-3-5-3-3-3-3-3-2-3-5-|
E|-1-0-1-3---------1-0-1-3---------1-0-1-3---------1-0-1-3---------1-0-1-3-|


Play Until End:
E|--------|
B|--------|
G|-5-~~~~-|
D|-5-~~~~-|
A|-3-~~~~-|
E|--------|
Suggest correction
comments
print report bad tab
guest
You may want to rate the tab now too:
select rating
Wanna post a correction for this tab? Suggest correction