Oops, an error
Loading. Please wait.

Cold Streets Tab

by MxPx
474 views 1 this week
no commentswrite comment
1 2 3 4 5
please rate
add to favorites
launch autoscroll
font size
0
reset
how to read this tab
guitar tuner
Autoscroll
slow
fast
+/-
esc
set tempo
stop
Help us to improve Ultimate-Guitar.com Take our survey!
×
ok well this is my first tab soo ya...hope it doesn't suck

intro 0:00
e|-----------|
b|-----------|
g|-------5---|
d|-7-5-7-5-5-|
a|-7-5-7-3-5-|
e|-5-3-5---3-|

1st solo 0:03
e|--------------------------------------------------------------|
b|-6b----8b-8b-8b-8b-8b--8h10-12-8h10-12-8h10-12-14b-16b-14b-13b|
g|--------------------------------------------------------------|
d|--------------------------------------------------------------|
a|--------------------------------------------------------------|
e|--------------------------------------------------------------|

verse 0:14
e|----------------------|
b|----------------------|
g|----------------------|
d|-7777-2222-4444-77-55-|  x3  
a|-7777-2222-4444-77-55-|
e|-5555-0000-2222-55-33-|

ooooh oooh oooh oohh... 0:27                     PM x10
e|---------------------|                        |---|
b|---------------------|                        |---|
g|-5555-7777-----------|                        |-5-|
d|-5555-7777-7777-5555-|    x2 then to end it...|-5-|
a|-3333-5555-7777-5555-|                        |-3-|
e|-----------5555-3333-|                        |---|

chorus...cause i dont feel so alive... 0:37
e|-------------------------|           |--------|
b|-------------------------|           |-8-10-8-|
g|-5-----------------------|  guitar 2=|--------|
d|-5-----5-----7-----3-----|           |--------|
a|-3-x14-5-x14-7-x14-3-x14-|           |--------|
e|-------3-----5-----1-----|           |--------|

2nd solo 0:50
e|---------------------------------------------------------------|
b|-\10b-10b-10b-12b-12b--8h10-12-8h10-12-8h10-12-14b-16b-14b-13b-|
g|---------------------------------------------------------------|
d|---------------------------------------------------------------|
a|---------------------------------------------------------------|
e|---------------------------------------------------------------|

-verse x6 0:56
-ooh part x2 1:10
-chorus x2 1:25

3rd solo 1:50 
e|------------------------------------------8-------------------------|
b|-\101010-8-10b-8-10-12-13bb-12-10---101010---10b-8-10-12-13bb-12-10-|
g|--------------------------------------------------------------------|
d|--------------------------------------------------------------------|
a|--------------------------------------------------------------------|
e|--------------------------------------------------------------------|

3rd solo cont...
e|-----------------------------------------|
b|-101010-8-10b-8-10-12-13bb-12-10-6b-8-6b-|
g|-----------------------------------------|
d|-----------------------------------------|
a|-----------------------------------------|
e|-----------------------------------------|

verse with effect thing x4 and its played during the "oohs" also 2:03
chorus x2 2:18

outro 2:43
e|-------|
b|-------|
g|-------|
d|-7-5-7-|
a|-7-5-7-|
e|-5-3-5-|
Suggest correction
Give kudos to tab author, rate the tab!
1 2 3 4 5
comments
print report bad tab
guest
You may want to rate the tab now too:
select rating
Please do not post tabs as comments. Select "correction" instead!