Oops, an error
Loading. Please wait.

Coming Home For Christmas Tab

by MxPx
1,767 views 15 this week
no commentswrite comment
1 2 3 4 5
3 more votes to show rating
add to favorites
launch autoscroll
font size
0
reset
how to read this tab
guitar tuner
Autoscroll
slow
fast
+/-
esc
set tempo
stop
Help us to improve Ultimate-Guitar.com Take our survey!
×
Author
Difficulty
novice
-----------------------------------------------------------------
Coming Home For Christmas - MXPX
-----------------------------------------------------------------
Tabbed by: Bair
Email: bair_morritt@hotmail.com
Tuning: Standard

Intro:
e|---------------------------------------------------------------|
B|---------------------------------------------------------------|
G|---------------------------------------------------------------|
D|--77-7-77-77--77777777--99999999--2----------------------------|
A|--77-7-77-77--77777777--99999999--2----------------------------|
E|--55-5-55-55--55555555--77777777--0----------------------------|

Verse:
e|-------------------------------------------------------------|
B|-------------------------------------------------------------|
G|-------------6--4--2--4-4444---------------------------------|
D|--2--6--7-7--6--4--2--4-4444-(Pick Slide)--------------------|
A|--2--6--7-7--4--2--0--2-2222---------------------------------|
E|--0--4--5-5--------------------------------------------------|
"I've been gone so long, I'll explain it...."

e|------------------------------------------------------------------------|
B|------------------------------------------------------------------------|
G|----------------------------------666666--444444--222222--444444--------|
D|--222222--666666--77777777777777--666666--444444--222222--444444--(X2)--|
A|--222222--666666--77777777777777--444444--222222--000000--222222--------|
E|--000000--444444--55555555555555----------------------------------------|
"I've been gone so long, I'll explain it...."

Chorus:
e|---------------------------------------------------------------|
B|---------------------------------------------------------------|
G|--------------------------------22--44444444-------------------|
D|--22222222--33333333--44444444--22--44444444--22222222---------|
A|--22222222--33333333--44444444--00--22222222--22222222---------|
E|--00000000--11111111--22222222----------------00000000---------|
"I'm coming home for Christmas...."

Outro Riff (Bells):
e|--7----7----5-2-5-2--5-2-5-2--4-0-4-0--------------------------|
B|----9----9-----------------------------------------------------|
G|--------------------------------------(Repeat-until-end)-------|
D|---------------------------------------------------------------|
A|---------------------------------------------------------------|
E|---------------------------------------------------------------|

Outro:
e|---------------------------------------------------------------|
B|---------------------------------------------------------------|
G|--------------------------------22--44444444-------------------|
D|--22222222--33333333--44444444--22--44444444--22222222--(X2)---|
A|--22222222--33333333--44444444--00--22222222--22222222---------|
E|--00000000--11111111--22222222----------------00000000---------|
Suggest correction
Give kudos to tab author, rate the tab!
1 2 3 4 5
comments
print report bad tab
guest
You may want to rate the tab now too:
select rating
Wanna post a correction for this tab? Suggest correction