Oops, an error
Loading. Please wait.

Destroyed By You Bass Tab

version 1
version 1

Whole song

by MxPx
187 views 1 this week
2 commentsread comments
1 2 3 4 5
3 more votes to show rating
add to favorites
launch autoscroll
font size
0
reset
guitar tuner
Autoscroll
slow
fast
+/-
esc
set tempo
stop
Help us to improve Ultimate-Guitar.com Take our survey!
×
Song:destroyed by you
Band:MXPX
Album:life in general
tabbed by:chris




G:---------------------------------------------------------------
D:---------------------------------------------------------------
A:-7-------7----------------------------------------------------
E:-----5---------5----------------------------------------------



G:----------------------------------------------------------------------------
D:--------6--7--9--7--6------7---------6--7--9--11--9--7--6----------
A:-7--9---------------------9-----7--9-------------------------------------
E:---------------------------------------------------------------


G:---------------------------------------------------------------
D:---------------------------------------------------------------
A:-7-------------------------------------------------------------
E:----2--5--2--5--2--5--7------------------------------------


G:---------------------------------------------------------------
D:---------------------------------------------------------------
A:-7----------------------------7------------------------------
E:-----5--2--7---9--10----------5--2--5--7---------------

i think that is all!
Suggest correction
Give kudos to tab author, rate the tab!
1 2 3 4 5
comments
print report bad tab
2 comments total.
0 reply
Legacy Drive 31 Nov 06, 2009 04:06 PM

there is an extra 0 10--10
0

sorry i missed that when i made the tab.

0 reply
ShmuckersJam 10 Feb 25, 2016 07:46 AM

G:-------------------------------------------------------------------
D:--------6--7--9--7--6--7--9-----------6--7--9--11--9--7--6---------
A:-7--9--------------------------7--9--------------------------------
E:-------------------------------------------------------------------

guest
You may want to rate the tab now too:
select rating
Wanna post a correction for this tab? Suggest correction