Oops, an error
Loading. Please wait.

Destroyed By You Bass Tab

version 2
version 2

Whole song

by MxPx
75 views 1 this week
no commentswrite comment
1 2 3 4 5
please rate
add to favorites
launch autoscroll
font size
0
reset
guitar tuner
Autoscroll
slow
fast
+/-
esc
set tempo
stop
Help us to improve Ultimate-Guitar.com Take our survey!
×
Author
Difficulty
novice
Destroyed By You (Intro)
By: MxPx
Tabbed By: JVon76

I think this is how it goes, this song always gave me a hard time trying to figure out the intro.

Easy Part:
G-----------------|
D-----------------|
A--7>--0>--7>--0>-|
E-----------------|

Next Part:
G----------------------------------6------------|
D---------6-7-9-7-6---7-77---6-7-9---9-7-6------|
A--7-77-9-----------9------9---------------9-99-|
E-----------------------------------------------|

Cont...
G-------------------------------6------------------------|
D------6-7-9-7-6---7-77---6-7-9---9-7-6------------------|
A--7-9-----------9------9---------------(Start Verse)-7--|
E--------------------------------------------------------|
Suggest correction
Give kudos to tab author, rate the tab!
1 2 3 4 5
comments
print report bad tab
guest
You may want to rate the tab now too:
select rating
Please do not post tabs as comments. Select "correction" instead!