Oops, an error
Loading. Please wait.

Do And Dont Tab

by MxPx
351 views 1 this week
no commentswrite comment
1 2 3 4 5
please rate
add to favorites
launch autoscroll
font size
0
reset
how to read this tab
guitar tuner
Autoscroll
slow
fast
+/-
esc
set tempo
stop
Help us to improve Ultimate-Guitar.com Take our survey!
×
Difficulty
novice
No one made a guitar tab for it, so I will.  Here you go, enjoy!

Tabbed by: Matt

Listen to song for strum patterns

Intro:
G           B               A        C
Still don't know what I wanna do
G                  B            A   C
I'd probably still ask you if I kn-ew
G             B                A    C
What I'm doing now seems to be o   k
G            B                 A       C
If it's your will, if it's your way - ay - ay

Interlude: G B A C D (3x)

G                             B
Don't wanna have to deal with pointless bureaucracy
A                                  C
Making sure when something goes on making sure that you agree
G                      B
Well I don't even know what my choices are
A (stop)                C (stop)
Should I fly a plane or should I drive a car? yeah
G                       B
Nothing's clear to me, my eyes won't do a thing for me
A                           C
I'll just wait here until I am what I will be
G
Whatever it is I'm sure I'll know
B
When the time comes He will show
A (stop)           C (stop)
Me what to do and me where to go...where to go (over repeated solo)

Solo 1:
e-----------------------------------------------|
B-----------------------------------------------|
G------------------------5-5-5------------------|  (2x)
D--5-5-5-----------------5-5-5----4--5--4-------|
A--5-5-5-----2--3--2-----3-3-3--5----------5----|
E--3-3-3--0-----------3-------------------------|

Chorus 1:
G             E              C  D
I still don't know what I wanna do
G              E              C  D
Probably still ask you if I knew yeah
G              E               C  D
What I'm doing now seems to be ok yeah
G              E             C  D
If it's your will if it's your way.....If it's your way (over solo 1)

(Solo 1) (2x)

Chorus 2:
A                  D              A      D
All I've got is a skateboard (Ahh) and a guitar (Ahh)
A                D               A
I go to a lot of punk shows (Ahh) and I drive a car

Solo 2:
-----------------------------------------------------------------------------|
-8----8-8-10-10-12--8-8-10-10-12--8-8-8-8-7-8-8-8--8-8-10-10-12-12-13-13-12--|
-0----0-0-0--0--0---0-0-0--0--0---0-0-0-0-0-0-0-0--0-0-0--0--0--0--0--0--0---|
-----------------------------------------------------------------------------|
-----------------------------------------------------------------------------|
-----------------------------------------------------------------------------|

---------|
-10-8----|
-0--0----|
---------|
---------|
---------|

Verse 2:
G                        B
I don't like to work and I don't like to go to school
A                                 C
Teacher thinks that I'm a girl and kids they think that I'm uncool
G                      B
I'm just not interested in much of anything
A                            C
Wouldn't wanna be a president, I don't wanna be a king
G                             B
Just wanna ride my skateboard, just wanna play my bass
A                                 C
Every now and then I strum a chord, sometimes land right on my face
G                  B
Have you any ideas, I can't tell by a chart
A                                C
I wanna do what He wants me to do, I wanna do my part. Yeah

(Solo 1) (2x) Do my part

(Chorus 1) (Solo 1) (2x)

(Chorus 2) (Solo 2)

Solo 3
-----------------------------------------------------------------------------|
-13-13-13-13-13-12-10-10-13-13-13-13-13-12-10-8-8--8-8-10-10-12-13-12-10-8-8-|
-0--0--0--0--0--0--0--0--0--0--0--0--0--0--0--0-0--0-0-0--0--0--0--0--0--0-0-|
-----------------------------------------------------------------------------|
-----------------------------------------------------------------------------|
-----------------------------------------------------------------------------|

-----------------|
-8-7-8-8-8-8-----|
-0-0-0-0-0-0-----|
-----------------|
-----------------|
-----------------|

(Intro)

Outro: G B A C D (3x) G
Suggest correction new What's this?
You can suggest a correction to this tab. Community and Mods will review your correction and vote to approve or reject it.
comments
We did not receive enough feedback on this tab! Please rate:
print report bad tab
1 2 3 4 5
guest
You may want to rate the tab now too:
select rating
Please do not post tabs as comments. Select "correction" instead!