Oops, an error
Loading. Please wait.

Doing Time Tab

version 1
version 1

Acoustic

Whole song

Interactive

by MxPx
3,462 views 6 this week
no commentswrite comment
1 2 3 4 5
x 3
add to favorites
launch autoscroll
font size
0
reset
how to read this tab
guitar tuner
Autoscroll
slow
fast
+/-
esc
set tempo
stop
Help us to improve Ultimate-Guitar.com Take our survey!
×
Author
Difficulty
Capo
intermediate
2nd fret
---------------------------------------------------------------------------
             Doing Time (Acoustic)--MXPX(Mike Herrera)
---------------------------------------------------------------------------
Tabbed by:nofxmike06
E-mail:N/A

Tuning:Capo 2; Standard 

Intro:
    E               B               A/E           B
e|----------------------------------------------------------------|
B|----------------------------------------------------------------|
G|--1----1----1-1-1-4----4----4-4-4-2----2--2-2-2-4----4----4-4-4-|
D|--2----2----2-2-2-4----4----4-4-4-2----2--2-2-2-4----4----4-4-4-|
A|--2----2----2-2-2-2----2----2-2-2-0----0--0-0-0-2----2----2-2-2-|
E|--0----0----0-0-0-x----x----x-x-x-0----0--0-0-0-x----x----x-x-x-|Repeat X1

e|------------------------------------------------------------------|
B|------------------------------------------------------------------|
G|--/9--9--x-11-11--x-8--8--x-9--9--x-6----6--6-6-x-8---8-8--8-8-8-8|
D|------------------------------------------------------------------|
A|--/7--7--x-9--9---x-6--6--x-7--7--x-4----4--4-4-x-6---6-6--6-6-6-6|
E|0000--0--0-0--0---0-0--0--0-0--0--0-0----0--0-0---0---0-0--0-0-0-0|

e|------------------------------------------------------------------|
B|------------------------------------------------------------------|
G|--/9--9--x-11-11--x-8--8--x-9--9--x-6----6--6-6-x-4---4-4--4-4-4-4|
D|------------------------------------------------------------------|
A|--/7--7--x-9--9---x-6--6--x-7--7--x-4----4--4-4-x-2---2-2--2-2-2-2|
E|0000--0--0-0--0-----0--0--0-0--0--0-0----0--0-0---0---0-0--0-0-0-0|

Verse 1:
Verse 2:
Verse 3:
    E               B               A             B
    I   Remember    times I had    some were happysome were sad
    Fun was cartoons Saturdays     Fun was staying up past eight
    Never Did homework after school Did all the things I thought were cool
e|----------------------------------------------------------------|
B|----------------------------------------------------------------|
G|--1----1----1-1-1-4----4----4-4-4-2----2--2-2-2-4----4----4-4-4-|
D|--2----2----2-2-2-4----4----4-4-4-2----2--2-2-2-4----4----4-4-4-|
A|--2----2----2-2-2-2----2----2-2-2-0----0--0-0-0-2----2----2-2-2-|
E|--0----0----0-0-0-x----x----x-x-x-0----0--0-0-0-x----x----x-x-x-|
    E               B               A               B
Memories, me and my partners in crimethrowing up a   thousand times
lame was tring to fit in,lame was the wrong crowd  let    me    in 
Went out every Friday night         I still do  and I'm alright
e|--------------------------------------------------------------------|
B|--------------------------------------------------------------------|
G|--1----1----1-1-1-4----4----4-4-4-2----(2)--------4----(4)----4-4-4-|
D|--2----2----2-2-2-4----4----4-4-4-2----(2)--------4----(4)----4-4-4-|
A|--2----2----2-2-2-2----2----2-2-2-0----(0)--------2----(2)----2-2-2-|
E|--0----0----0-0-0-x----x----x-x-x-0----(0)--------x-----------x-x-x-|

[3rd time only End on E]

e|--0---|
B|--0---|
G|--1---|
D|--2---|
A|--2---|
E|--0---|

Refrain:
    E                 D                              A               
   I got through it I feel fine     I went to school and "did my time"
e|---------------------------------------------------------------|
B|---------------------------------------------------------------|
G|--1----1----1-1-1---7-7----7-7-7-7----7----7-7-7---2-2----2-2-2|
D|--2----2----2-2-2---7-7----7-7-7-7----7----7-7-7---2-2----2-2-2|
A|--2----2----2-2-2---5-5----5-5-5-5----5----5-5-5---0-0----0-0-0|
E|--0----0----0-0-0---x-x----x-x-x-x----x----x-x-x---0-0----0-0-0|
                                   B
      in a sense i'm out,    in a sense   i'm   free      to tell you what
e|------------------------------------------------------------------|
B|------------------------------------------------------------------|
G|--2----2----2-2-2---2-2----2-2-2-4----(4)--------4----(4)----4-4-4|
D|--2----2----2-2-2---2-2----2-2-2-4----(4)--------4----(4)----4-4-4|
A|--0----0----0-0-0---0-0----0-0-0-2----(2)--------2----(2)----2-2-2|
E|--0----0----0-0-0---0-0----0-0-0-x---------------x-----------x-x-x|

Breakdown:
  I wanna be...
   [3rd time] go...
e|------------------------------------------------------------------|
B|------------------------------------------------------------------|
G|--/9--9--x-11-11--x-8--8--x-9--9--x-6----6--6-6-x-8---8-8--8-8-8-8|
D|------------------------------------------------------------------|
A|--/7--7--x-9--9---x-6--6--x-7--7--x-4----4--4-4-x-6---6-6--6-6-6-6|
E|0000--0--0-0--0---0-0--0--0-0--0--0-0----0--0-0---0---0-0--0-0-0-0|

                                  [Second time only]--> You gotta stick
e|------------------------------------------------------------------|
B|------------------------------------------------------------------|
G|--/9--9--x-11-11--x-8--8--x-9--9--x-6----6--6-6-x-4---4-4--4-4-4-4|
D|------------------------------------------------------------------|
A|--/7--7--x-9--9---x-6--6--x-7--7--x-4----4--4-4-x-2---2-2--2-2-2-2|
E|0000--0--0-0--0-----0--0--0-0--0--0-0----0--0-0---0---0-0--0-0-0-0|


Bridge:
   together         With who you  are   and who you know You gotta re-
e|----------------------------------------------------------------|
B|--5----5----5-5-5---5-5----5-5-5--------------------------------|
G|--6----6----6-6-6---6-6----6-6-6-4----4----4-4-4---4-4----4-4-4-|
D|--6----6----6-6-6---6-6----6-6-6-4----4----4-4-4---4-4----4-4-4-|
A|--4----4----4-4-4---4-4----4-4-4-2----2----2-2-2---2-2----2-2-2-|
E|---------------------------------x----x----x-x-x---x-x----x-x-x-|

    member                    Where you been        Where you wanna
                                                [Back to Breakdown]
e|----------------------------------------------------------------|
B|----------------------------------------------------------------|
G|--2----2----2-2-2---2-2----2-2-2-2----2-2-2-2x------------------|
D|--2----2----2-2-2---2-2----2-2-2-2----2-2-2-2x------------------|
A|--0----0----0-0-0---0-0----0-0-0-0----0-0-0-0x------------------|
E|--0----0----0-0-0---0-0----0-0-0-0----0-0-0-0x------------------|
                                              ^


************************************
| ^   "Stab" this note/chord 
| /   slide up
| \   slide down
| h   hammer-on
| p   pull-off
| ~   vibrato
| +   harmonic
| x   Mute note
| b   Bend
| pb  Pre-bend
| br  Bend release
| pbr Pre-bend release
| brb Bend release bend

************************************
Suggest correction
Give kudos to tab author, rate the tab!
1 2 3 4 5
comments
print report bad tab
guest
You may want to rate the tab now too:
select rating
Wanna post a correction for this tab? Suggest correction