Oops, an error
Loading. Please wait.

Elvis Is Dead Bass Tab

by MxPx
65 views 1 this week
no commentswrite comment
1 2 3 4 5
3 more votes to show rating
add to favorites
launch autoscroll
font size
0
reset
guitar tuner
Autoscroll
slow
fast
+/-
esc
set tempo
stop
Help us to improve Ultimate-Guitar.com Take our survey!
×
Author
Difficulty
novice
Elvis Is Dead
By: MxPx
Tabbed By: JVon76

Intro: Play
G------------------------------------------------------------------|
D----2-----3-------------2-----3--------------2-----3--------------|
A--3---0h1-----0-1-2-0h3---0h1------0-1-2-0h3---0h1------0-1-2-0---|
E------------1~-------------------1~------------------1~-----------|

Cont...
G---------------------------|
D----2-----3----------------|
A--3---0h1------0-1-2-------|(Stop)
E------------1~-------------|

Verse: 4x
G-----------------|
D-----------------|
A--3>-1>----------|
E--------1>----3--|(Only Play This Note on 4th time)

Chorus: 2x
G----------|
D----------|
A----3>-1>-|
E-1>-------|

Play Intro
Play Verse 4x
Play Chorus 2x End On C (A-3)
Suggest correction
Give kudos to tab author, rate the tab!
1 2 3 4 5
comments
print report bad tab
guest
You may want to rate the tab now too:
select rating
Wanna post a correction for this tab? Suggest correction