Oops, an error
Loading. Please wait.

Foolish Tab

by MxPx
587 views 1 this week
no commentswrite comment
1 2 3 4 5
1 last vote to show rating
add to favorites
launch autoscroll
font size
0
reset
how to read this tab
guitar tuner
Autoscroll
slow
fast
+/-
esc
set tempo
stop
Help us to improve Ultimate-Guitar.com Take our survey!
×
=====================================================================
                          Foolish  -  MxPx
=====================================================================
Tabbed by: punkROCKSerfer
Email: BdRlgnNOFXguy32@AOL.com

~= let ring
*= palm mute
X= pick scratch
/ \= slide

Intro
e|------------------|
B|------------------|
G|--------------7-9-|
D|-7777-7--7777-7-9-|
A|-7777-7--7777-5-7-|
E|-5555-5--5555-----|

Verse 1  (Some people say....)
e|----------------------------------------------------------------------|
B|----------------------------------------------------------------------|
G|-----------------------------------------7777-9999----------------7-9-|
D|-77-7-77-7-77-7-77-7-44-4-44-4-44-4-44-4-7777-9999-77-7-77-7-77-7-7-9-|
A|-77-7-77-7-77-7-77-7-44-4-44-4-44-4-44-4-5555-7777-77-7-77-7-77-7-5-7-|
E|-55-5-55-5-55-5-55-5-22-2-22-2-22-2-22-2-----------55-5-55-5-55-5-----|
   **   **   **   **   **   **   **   **             **   **   **

Verse 1 con't. (Some people say....)
e|------------------------------------------------------------------|
B|------------------------------------------------------------------|
G|-----------------------------------------7777-9999----------------|
D|-77-7-77-7-77-7-77-7-44-4-44-4-44-4-44-4-7777-9999-77777777777777-|
A|-77-7-77-7-77-7-77-7-44-4-44-4-44-4-44-4-5555-7777-77777777777777-|
E|-55-5-55-5-55-5-55-5-22-2-22-2-22-2-22-2-----------55555555555555-|
   **   **   **   **   **   **   **   **

Pre-Chorus  (All that I can....)
e|-----------------------------------------------------|
B|-----------------------------------------------------|
G|-777777-444444---------------777777-444444-----------|
D|-777777-444444-444444-777777-777777-444444-444444-2~-|  (pickslide)
A|-555555-222222-444444-777777-555555-222222-444444-2~-|
E|---------------222222-555555---------------222222-0~-|

Chorus  (And every single....)
e|-------------------------------------------------------|
B|-------------------------------------------------------|
G|-777777777-444444444---------------------7777777777-9~-|
D|-777777777-444444444-444444444-777777777-7777777777-9~-|
A|-555555555-222222222-444444444-777777777-5555555555-7~-|
E|---------------------222222222-555555555---------------|
                                            *********

Bridge 
e|------------------|
B|------------------|
G|--------------7-9-|
D|-7777-7--7777-7-9-|
A|-7777-7--7777-5-7-|
E|-5555-5--5555-----|

Verse 2  (Some people say....)
e|----------------------------------------------------------------------|
B|----------------------------------------------------------------------|
G|-----------------------------------------7777-9999----------------7-9-|
D|-77-7-77-7-77-7-77-7-44-4-44-4-44-4-44-4-7777-9999-77-7-77-7-77-7-7-9-|
A|-77-7-77-7-77-7-77-7-44-4-44-4-44-4-44-4-5555-7777-77-7-77-7-77-7-5-7-|
E|-55-5-55-5-55-5-55-5-22-2-22-2-22-2-22-2-----------55-5-55-5-55-5-----|
   **   **   **   **   **   **   **   **             **   **   **

Verse 2 con't. (Some people say....)
e|------------------------------------------------------------------|
B|------------------------------------------------------------------|
G|-----------------------------------------7777-9999----------------|
D|-77-7-77-7-77-7-77-7-44-4-44-4-44-4-44-4-7777-9999-77777777777777-|
A|-77-7-77-7-77-7-77-7-44-4-44-4-44-4-44-4-5555-7777-77777777777777-|
E|-55-5-55-5-55-5-55-5-22-2-22-2-22-2-22-2-----------55555555555555-|
   **   **   **   **   **   **   **   **

Verse 2 con't.  (I'm not here to....)
e|-------------------------------------------------------|
B|-------------------------------------------------------|
G|-777777-999999--------------777777-999999--------------|
D|-777777-999999-444444444444-777777-999999-777777777777-|
A|-555555-777777-444444444444-555555-777777-777777777777-|
E|---------------222222222222---------------555555555555-|

Pre-Chorus  (All that I can....)
e|-----------------------------------------------------|
B|-----------------------------------------------------|
G|-777777-444444---------------777777-444444-----------|
D|-777777-444444-444444-777777-777777-444444-444444-2~-|  (pickslide)
A|-555555-222222-444444-777777-555555-222222-444444-2~-|
E|---------------222222-555555---------------222222-0~-|

Chorus  (And every single....)
e|-----------------------------------------------------------------|
B|-----------------------------------------------------------------|
G|-777777777-444444444---------------------7~-4~-------77777777-9~-|
D|-777777777-444444444-444444444-777777777-7~-4~-4~-7~-77777777-9~-|
A|-555555555-222222222-444444444-777777777-5~-2~-4~-7~-55555555-7~-|
E|---------------------222222222-555555555-------2~-5~-------------|
                                                        *******

Solo  (Just wait....)
e|-------------------------------------------------------|
B|-------------------------------------------------------|
G|---------------777777-----9---------------777777777777-|
D|-444444-222222-777777-7-X-9-444444-222222-777777777777-|
A|-444444-222222-555555-7-X-7-444444-222222-555555555555-|
E|-222222-000000--------5-X---222222-000000--------------|

Solo con't.  (What will it be....)
e|-----------------------------------------------X----|
B|-----------------------------------------------X----|
G|---------------77777---------------------7~----X----|
D|-44444-2222222-77777-7~-9~-44444-2222222-7~-2~-X x8-|
A|-44444-2222222-55555-7~-9~-44444-2222222-5~-2~-X----|
E|-22222-0000000-------5~-7~-22222-0000000----0~-X----|

Chorus  (Every single time....)
e|-----------------------------------------------------------|
B|-----------------------------------------------------------|
G|-777777777-444444444---------------------7~-4~-------7~-9~-|
D|-777777777-444444444-444444444-777777777-7~-4~-4~-7~-7~-9~-|
A|-555555555-222222222-444444444-777777777-5~-2~-4~-7~-5~-7~-|
E|---------------------222222222-555555555-------2~-5~-------|

Outro
e|--------------------|
B|--------------------|
G|--------------7-9---|
D|-7777-7--7777-7-9-7-|
A|-7777-7--7777-5-7-7-|
E|-5555-5--5555-----5-|
Suggest correction
Give kudos to tab author, rate the tab!
1 2 3 4 5
comments
print report bad tab
guest
You may want to rate the tab now too:
select rating
Wanna post a correction for this tab? Suggest correction