Oops, an error
Loading. Please wait.

Gsf Bass Tab

version 4
version 4

Whole song

Interactive

by MxPx
98 views 1 this week
no commentswrite comment
1 2 3 4 5
please rate
add to favorites
launch autoscroll
font size
0
reset
guitar tuner
Tab Pro tools
  • play this tab
  • loop segment
  • change instrument
  • show fretboard
  • metronome
×
Best way to learn
"Gsf"
Autoscroll
slow
fast
+/-
esc
set tempo
stop
Intro
G|--------------------------------------------------|
D|-------------------------------4444---------------| (x2)
A|--------777777--333333---5555---------------------|
E|-333333-------------------------------------------|

Verse (You didn't have to be so mean to me..)
G|--------------------------------------------------|
D|--------------------------------------------------|(x2)
A|---------7(x12--3(x12)--5(x12)--------------------|
E|-3(x12)-------------------------------------------|

Post Verse (Waste of time..)
G|--------------------------------------------------|
D|--------------------------------------------------|(x2)
A|-----------777777--444444--555555-----------------|
E|--333333------------------------------------------|

Chorus (Girl's ain't no good anynmore, anyway) 
G|--------------------------------------------------|
D|--------------------------------------------------|(x1)
A|--7(12)--3(x12)--2(x12)--5(x12--------------------|
E|--------------------------------------------------|

(Not for one second have I understood...)
G|--------------------------------------------------|
D|--------------------------------------------------|(x1)
A|--7(x12)--3(x12)----------5(x12-------------------|
E|------------------3(x12)--------------------------|

Intro/Post Chorus
G|--------------------------------------------------|
D|-------------------------------4444---------------| (x2)
A|--------777777--333333---5555---------------------|
E|-333333-------------------------------------------|

Verse (Always happens to my friends...)
G|--------------------------------------------------|
D|--------------------------------------------------|(x2)
A|---------7(x12)--3(x12--5(x12)--------------------|
E|--3(x12-------------------------------------------|

Post Verse (Without, do without...)
G|--------------------------------------------------|
D|--------------------------------------------------|(x2)
A|-----------777777--444444--555555-----------------|
E|--333333------------------------------------------|

Chorus (Girl's ain't no good anynmore, anyway) 
G|--------------------------------------------------|
D|--------------------------------------------------|(x1)
A|--7(12)--3(x12)--2(x12)--5(x12--------------------|
E|--------------------------------------------------|

(Not for one second have I understood...)
G|--------------------------------------------------|
D|--------------------------------------------------|(x1)
A|--7(x12)--3(x12)----------5(x12-------------------|
E|------------------3(x12)--------------------------|

Intro/Post Chorus
G|--------------------------------------------------|
D|-------------------------------4444---------------| (x2)
A|--------777777--333333---5555---------------------|
E|-333333-------------------------------------------|

End on...
G|-------|
D|---5---|
A|-------|
E|-------|




Tell me what you think Myspace.com/jacklyn_is_hot



comments
We did not receive enough feedback on this tab! Please rate:
print report bad tab
1 2 3 4 5
I want to post or [tab]
guest
You may want to rate the tab now too:
select rating
Please do not post tabs as comments. Select "correction" instead!