Oops, an error
Loading. Please wait.

Gsf Bass Tab

version 5
version 5

Whole song

Interactive

by MxPx
301 views 3 this week
no commentswrite comment
1 2 3 4 5
please rate
add to favorites
launch autoscroll
font size
0
reset
guitar tuner
Autoscroll
slow
fast
+/-
esc
set tempo
stop
Help us to improve Ultimate-Guitar.com Take our survey!
×
This Is A Really Cool Song To Play. Enjoy!!!

Tabbed By:Edgardo Aguirre

Intro 
G-------------------------------------------------------------| 
D------------------5---5-----5---5-----5-4--------------------| x2 
A------5---5---777---7---333---3---555-----5------------------|
E--333---3----------------------------------------------------|

Verse
G----------------------------------------------------------------------| 
D----------------------------------------------------------------------| x2
A-------------------777777777777777--333333333333333--555555555555555--| 
E--3333333333333333----------------------------------------------------|

Pre-Chorus
G------------------------------------------| 
D------------------------------------------| x2
A------------22222222--33333333--55555555--| 
E--33333333--------------------------------|

Chorus
G------------------------------------------------------------------------| 
D---------5--5-5-----5--------5---5----4---------4---4----5-----754-754--|
A--7777777-77-7--333---3333333--3---222--2222222---2---555-5555----------|
E------------------------------------------------------------------------|

G---------------------------------------------------------------------| 
D----------5--5-5-----5--------5---5-----------------------5----------|
A--7777777--77-7--333---3333333--3------5---------5---5-555-55555555--|
E------------------------------------333--3333333---3-----------------|


Intro 
G-------------------------------------------------------------| 
D------------------5---5-----5---5-----5-4--------------------| x2 
A------5---5---777---7---333---3---555-----5------------------|
E--333---3----------------------------------------------------|

Verse
G----------------------------------------------------------------------| 
D----------------------------------------------------------------------| x2
A-------------------777777777777777--333333333333333--555555555555555--| 
E--3333333333333333----------------------------------------------------|

Pre-Chorus
G------------------------------------------| 
D------------------------------------------| x2
A------------22222222--33333333--55555555--| 
E--33333333--------------------------------|

Chorus
G------------------------------------------------------------------------| 
D---------5--5-5-----5--------5---5----4---------4---4----5-----754-754--|
A--7777777-77-7--333---3333333--3---222--2222222---2---555-5555----------|
E------------------------------------------------------------------------|

G---------------------------------------------------------------------| 
D----------5--5-5-----5--------5---5-----------------------5----------|
A--7777777--77-7--333---3333333--3------5---------5---5-555-55555555--|
E------------------------------------333--3333333---3-----------------|

Intro/End
G-----------------------------------------------------------| 
D------------------5---5-----5---5-----5-4------------------| 
A------5---5---777---7---333---3---555-----5----------------|
E--333---3--------------------------------------------------|

G-----------------------------------------------------------| 
D------------------5---5-----5---5-----5-4------------------|  
A------5---5---777---7---333---3---555-----5----------------|
E--333---3-------------------------------------3~-----------|


Please Rate
Suggest correction
Give kudos to tab author, rate the tab!
1 2 3 4 5
comments
print report bad tab
guest
You may want to rate the tab now too:
select rating
Please do not post tabs as comments. Select "correction" instead!