Oops, an error
Loading. Please wait.

Here With Me Bass Tab

version 1
version 1

Whole song

Interactive

by MxPx
197 views 1 this week
no commentswrite comment
1 2 3 4 5
please rate
add to favorites
launch autoscroll
font size
0
reset
guitar tuner
Autoscroll
slow
fast
+/-
esc
set tempo
stop
Help us to improve Ultimate-Guitar.com Take our survey!
×
Author
Difficulty
novice
Here With Me
By: MxPx
Tabbed By: JVon76

Intro:
G---------------------------------------|
D---------------------------------------|
A----1-2-4-2>-4>-6>-8-88-9-99\-2>-4>----|
E-2~---------------------------------2~-|

Verse: Play 2x
G---------------------------------|
D---------------------------------|
A-9-9-9-9-99\6>-2>-4>/-9-9-9-9-99-|
E---------------------------------|

Chorus: Play 1x
G--------------------------------------------------|
D--------------------------------------------------|
A-2>-4>/99-9-99-9-99-9-99-9\-2>-4>-6>-8-9\2>-4>----|
E-----------------------------------------------2~-|

Play Verse 2x
Play Chorus 1X
Bridge:
G---------------------------------------------------------------|
D---------------------------------------------------------------|
A-1-2-4-2>-4>-6>-8-88-9-99\2>-4>----2>-4>-6>-8-88-9-99\2>-4>/9~-|
E--------------------------------2>-----------------------------|

Play Chorus 2x

Ending: Play 1x
G----------------------------------|
D----------------------------------|
A----2-4----2-4-6~-8-9\2~-2~-4~----|
E-2~-----2~---------------------2~-|

**Note**
The 1st note in the Ending is the last note of the Chorus so do not play the F# (E-2) 
twice.  Simply let it ring out from the Chorus and then play the rest of the ending.
Suggest correction
Give kudos to tab author, rate the tab!
1 2 3 4 5
comments
print report bad tab
guest
You may want to rate the tab now too:
select rating
Please do not post tabs as comments. Select "correction" instead!