Oops, an error
Loading. Please wait.

Inquiring Minds Want To Know Bass Tab

by MxPx
55 views 1 this week
no commentswrite comment
1 2 3 4 5
please rate
add to favorites
launch autoscroll
font size
0
reset
guitar tuner
Tab Pro tools
  • play this tab
  • loop segment
  • change instrument
  • show fretboard
  • metronome
×
Best way to learn
"Inquiring Minds Want To Know"
Autoscroll
slow
fast
+/-
esc
set tempo
stop
Difficulty
intermediate
Inquiring Minds Want To Know
From The Album: Teenage Politics
By: MxPx
Tabbed By: jvon76

Intro: Play 1X.
G-------------------------------------------------------------|
D-------------------------------------------------------------|
A--0-222-0-222-5-7-8~--0-222-0-222-8-7-5~--0-222-0-222-5-7-8~-|
E-------------------------------------------------------------|

Cont...
G-------------------------------------------------------------------|
D-------------------------------------------------------------------|
A--0-222-8-7-5(Quick Stop)-5-7-8(Quick Stop)8-7-5(Quick Stop)7-5----|
E----------------------------------------------------------------77-|

Verse: Play 4X.
G------------------------|
D------------------------|
A------555-3-33----------|
E--7>-----------333-5-55-|

Chorus: Play 2X.
G-----------------------|
D-----------------------|
A----------3>------5555-|
E--7>--5>-----3333------|

Post-Chorus: Play 2X.
G-------------------------------|
D-------------------------------|
A--3--2>-----5>--3-2>---5-7-777-|
E---------3-----------3---------|

Part Before They Go Back Into The Verse Riff; Play 2X.
G-------------------------------------------|
D-------4-2-0-------------------2-22-2h3p-0-|
A--2-22-------2-22-2-0-5-55-5-0-------------|
E-------------------------------------------|

Play Verse 4X.
Play Chorus 2X.
Play Post-Chorus 2X.

Cool Jazz Part: Play 2X. (Listen To The Song To Get The Rhythm Down)
G-------------------------------------------------------------|
D---4--------------------7-5---------4-7-5---5-3--------------|
A-2---4-5-7-7-5-4------7-----7-5--5-7------5-----5-3--3-1-0---|
E------------------7-5--------------------------------------3-|

Cont...
G---------------------------------|
D-------------------------2-3-2-0-|
A-----------------3-5-3-5---------|
E-1-3-5-3-5-6-5-6-----------------|

Ending (Variation Of The Post-Chorus) Play 1X.
G-----------------------------------------------------------------------|
D-----------------------------------------------------------------------|
A--3-2>---5>-3-2>---5-7-777--3-2>---5>-3-2>---5-5-7-5-7-----------------|(Quick Stop, End)
E-------3---------3---------------3---------3---------------------------|
comments
We did not receive enough feedback on this tab! Please rate:
print report bad tab
1 2 3 4 5
I want to post or [tab]
guest
You may want to rate the tab now too:
select rating
Please do not post tabs as comments. Select "correction" instead!