Oops, an error
Loading. Please wait.

Late Again Bass Tab

version 1
version 1

Whole song

Interactive

by MxPx
745 views 1 this week
no commentswrite comment
1 2 3 4 5
2 more votes to show rating
add to favorites
launch autoscroll
font size
0
reset
guitar tuner
Autoscroll
slow
fast
+/-
esc
set tempo
stop
Help us to improve Ultimate-Guitar.com Take our survey!
×
Author
Difficulty
intermediate
-------------------------
LATE AGAIN – MXPX – PANIC
-------------------------

Tabbed By: kstar19

Tuning: normal

> : play lots of times
/ : slide
(): just so you know it is an eleven or twelve and not a one one or one two



INTRO
G|---------------------------------------------|
D|--4-5-7-------------------00000--------00----|
A|5------5555-----023-20-023-----320-0023--30--|
E|------------3333------3--------------------3-|

CHORUS
G|------------------------------------|
D|---------0>----------0>-2>----0>----|
A|---3>----------3>----------3>-------|
E|3>----3>----3>----3>-------------3>-|

VERSE 1
G|--------------------------|
D|---0>-2>-4/5-------0>-----|
A|3>-----------3>-3>----320-|
E|--------------------------|

CHORUS
G|------------------------------------|
D|---------0>----------0>-2>----0>----|
A|---3>----------3>----------3>-------|
E|3>----3>----3>----3>-------------3>-|

VERSE 2
G|------------------------|
D|---0>-2>-4/5-------0>-0-|
A|3>-----------3>-3>------|
E|------------------------|

CHORUS
G|------------------------------------|
D|---------0>----------0>-2>----0>----|
A|---3>----------3>----------3>-------|
E|3>----3>----3>----3>-------------3>-|

BRIDGE (I guess?)
G|------------------------------------------------|
D|-------------------------------------4-5-7------|
A|---------------5-55-3-32-2------5>-5-------5555-|
E|5-55-4-44-3-33------------5-53-3----------------|


GUITAR SOLO
G|--------------------------------------------------------------|
D|---------------00000--------------------0-0-12-0-------0------|
A|-----023-20-023-----320------023-20-023--2------32-333--320---|
E|3333-------3-----------3333--------3-----------------------3>-|

HIGHER CHORUS
G|----------------------------|
D|----------------------------|
A|--5---7---5---7-9-5-7----7>-|
E|5---5---5---5---------5>----|

HIGHER CHORUS
G|------------------------------------|
D|------------------------------------|
A|---5>----7>----5>----7>-9>-5>-7>----|
E|5>----5>----5>----5>-------------5>-|

OUTRO
G|------------------------------------------|
D|------------------------------------------|
A|5>----7>-9---9-(11)(12)(11)9(11)9--5-7----|
E|---5>----------------------------------5>-|

Awesome band!  Awesome bass!  Awesome song!  ‘nuf said!
Suggest correction
Give kudos to tab author, rate the tab!
1 2 3 4 5
comments
print report bad tab
guest
You may want to rate the tab now too:
select rating
Wanna post a correction for this tab? Suggest correction