Oops, an error
Loading. Please wait.

Late Last Night Bass Tab

by MxPx
219 views 1 this week
no commentswrite comment
1 2 3 4 5
3 more votes to show rating
add to favorites
launch autoscroll
font size
0
reset
guitar tuner
Autoscroll
slow
fast
+/-
esc
set tempo
stop
Help us to improve Ultimate-Guitar.com Take our survey!
×
Author
Difficulty
intermediate
Late Last Night
By: MxPx
Tabbed By: JVon76

Intro: Play 2x. Very Fast
G--------------4-7-------------4-7-------------4-7--------------|
D------4-7-5-7---------4-7-5-7---------4-7-5-7------------------|
A--5-7-------------5-7-------------5-7-------------3-3-0--0-4-7-|
E---------------------------------------------------------------|

Pre-Verse: Play 2x
G-------------------------------------------------|
D-------5-5-4------5-5-4------5-5-4---------------|
A--5-55-------5-55-------5-55--------3-3-0--0-4-7-|
E-------------------------------------------------|

Verse: Play 4x
G-------------|
D-------------|
A--5>--3>--0>-|
E-------------|

Chorus: Play 2x
G---------------------------------------|
D---------------------------------------|
A--5-5--------------5-5---------3-333-0-|
E------2-2-3(Pause)-----2-2-333---------|

Play Pre Verse 2x
Play Verse 4x
Play Chorus 2x
Play Intro 2x End Song on D (A-5)
Suggest correction
Give kudos to tab author, rate the tab!
1 2 3 4 5
comments
print report bad tab
guest
You may want to rate the tab now too:
select rating
Wanna post a correction for this tab? Suggest correction