Oops, an error
Loading. Please wait.

Move To Bremerton tab

version 1
version 1

Whole song

Interactive

by MxPx
1,453 views 6 this week
3 commentsread comments
1 2 3 4 5
1 last vote to show rating
add to favorites
×
Save as Personal and add changes to this tab that will be seen only by you. Learn more ›
×
You can save this tab as Personal to edit and correct it or add notes. All changes will be seen only by you. Learn more »
launch autoscroll
font size
0
reset
how to read this tab
guitar tuner
edit
Autoscroll
slow
fast
+/-
esc
set tempo
stop
Artist: MxPx
   Song: Move to Bremerton
   Album: Life in General
   Tabbed by: Andy Loven (PxPunk39@aol.com)

   *Listen to the CD for exact strumming*

   Intro:
   Palm muted...
   e-------------------------------------------------------------|
   B-------------------------------------------------------------|
   G-------------------------------------------------------------|
   D-------7-----7---7--------12---------11--------9-----9---9---|
   A---5-5---5-5---5----10-10----10--9-9----9--7-7---7-7---7-----|
   E-------------------------------------------------------------|

   Palm muted...
   e---------------------------|
   B---------------------------|
   G---------------------------|
   D---------12---------11/7---|
   A---10-10----10--9-9--------|
   E---------------------------|
   *The intro doesn't sound perfect but I think this is the best tab of it.
   You won't be able to tell the difference unless you're playing along to 
   the CD.

   D G
   When I meet a special girl
   B A
   She always lives somewhere else in the world
   D G
   I don't want to call her on the phone
   B A
   I wanna talk to her when I'm at home

   G
   Move to Bremerton - we'll hang out
   D
   Move to Bremerton - we'll go all out
   B A
   Move to Bremerton - will you be mine?
   (Move to Bremerton til' the end of time)

   D G
   I'll change the street signs you drive down
   B A
   So you end up in my town
   D G
   I'll re-draw the maps all one by one
   B A
   So they all lead to Bremerton

   G B
   Drop out of school and run away
   A# A
   Quit your job, you got a place to stay
   G B
   Pack your bags and hitch a ride
   A# A 
   Bremerton's a good place to reside

   (Play the intro riff and let the D ring on this part. If you don't know 
   what I'm talking about listen to the CD. It's easy.)

   If you own a brain and use it too
   You gotta know I'd have a crush on you
   I'm a sucker for a level headed girl with a pretty smile
   She gotz to have ideas, yeah, and she gotz to have style 
Suggest correction
Creating personal tab
Creating personal tab
You can edit any tab online and save it as your Personal.

You can edit, replace or remove any tab part or add personal notes – all changes will be seen only by you.

Personal tabs can be accessed anytime from any device, even offline.
Learn more »
Give kudos to tab author, rate the tab!
1 2 3 4 5
comments
print report bad tab
3 comments total.
0 reply
alo 0 Mar 27, 2002 07:00 PM

not bad
nice

0 reply
zAoFrEaK1 10 May 10, 2002 08:00 PM

hey man....the intro is a lil wrong...... so if u would email me and ill send it to u,
justin

0 reply
vasuveas 15 May 21, 2005 08:00 PM

hi, mxpx r rad.
the intro goes like this:
E|-------------------------------------|
B|-------------------------------------|
G|-------------------------------------|
D|-----7-----7---7-------9--------12---|
A|-5-5---5-5---5---10-10---10-9-9----9-|
E|-------------------------------------|

E|-------------------------------------|
B|-------------------------------------|
G|-------------------------------------|
D|-----9-----9---9-------9--------12\--|
A|-7-7---7-7---7---10-10---10-9-9------|
E|-------------------------------------|
With appropriate palm muting.

The rest is great. rock on!

guest
Wanna post a correction for this tab? Suggest correction