Oops, an error
Loading. Please wait.

My Boyfriends Back Tab

by MxPx
3,285 views 1 this week
no commentswrite comment
1 2 3 4 5
2 more votes to show rating
add to favorites
launch autoscroll
font size
0
reset
how to read this tab
guitar tuner
Autoscroll
slow
fast
+/-
esc
set tempo
stop
Help us to improve Ultimate-Guitar.com Take our survey!
×
Author
Difficulty
novice
-----------------------------------------------------------------
My Boyfriends Back - MXPX
-----------------------------------------------------------------
Tabbed by: Bair
Email: bair_morritt@hotmail.com

Tuning: Standard


Verse:
e|---------------------------------------------------------------|
B|---------------------------------------------------------------|
G|-----xx-xx--xx-xx--22222222--44444444--xx-xx--xx-xx------------|
D|--2--xx-xx--xx-xx--22222222--44444444--xx-xx--xx-xx--(X4)------|
A|--2--xx-xx--xx-xx--00000000--22222222--xx-xx--xx-xx------------|
E|--0------------------------------------------------------------|
"My boyfriends back and your gonna be in trouble...."

Chorus:
e|---------------------------------------------------------------|
B|---------------------------------------------------------------|
G|-----22222222-----22222222-------------------------------------|
D|--2--22222222--2--22222222-------------------------------------|
A|--2--00000000--2--00000000-------------------------------------|
E|--0------------0-----------------------------------------------|
"Hey, he knows that you've been trying...."

-Then Verse
-Then Chorus

Interlude:
e|---------------------------------------------------------------|
B|---------------------------------------------------------------|
G|--2-2-2-2-2-2-2-2---------2-2-2-2-2-2-2-2-------------4--------|
D|--2-2-2-2-2-2-2-2--22-22--2-2-2-2-2-2-2-2--22-22--44--4--------|
A|--0-0-0-0-0-0-0-0--22-22--0-0-0-0-0-0-0-0--22-22--44--2--------|
E|-------------------00-00-------------------00-00--22-----------|
"What did you think? you could live your whole life?...."

-Then Verse
-Then Chorus (X8)

Outro:
e|---------------------------------------------------------------|
B|---------------------------------------------------------------|
G|------------22222222-------------------------------------------|
D|--22222222--22222222--2--(Let Ring)----------------------------|
A|--22222222--00000000--2----------------------------------------|
E|--00000000------------0----------------------------------------|
Suggest correction
Give kudos to tab author, rate the tab!
1 2 3 4 5
comments
print report bad tab
guest
You may want to rate the tab now too:
select rating
Wanna post a correction for this tab? Suggest correction