Oops, an error
Loading. Please wait.

My Life Story Bass Tab

version 1
version 1

Whole song

Interactive

by MxPx
835 views 3 this week
no commentswrite comment
1 2 3 4 5
2 more votes to show rating
add to favorites
launch autoscroll
font size
0
reset
guitar tuner
Autoscroll
slow
fast
+/-
esc
set tempo
stop
Help us to improve Ultimate-Guitar.com Take our survey!
×
Author
Difficulty
novice
MxPx - My life story

bass tab

by : doky 2007
taquilleros_de_sudamerica_maroyu_el_grupo_tropical_del_momento@hotmail.com

4-stringed bass
G D A E 

   INTRO
G-|----------------------|
D-|----------------------|
A-|--------------5---5---|
E-|-555555555555---------|

                                                                              
   VERSO
G-|--------------|---|--------------------------------------|
D-|--------------|---|-7777-6666-4444-2222-0000-0000--------|
A-|------5---5---|---|--------------------------------------|
E-|-4------------|---|-------------------------------00-5---|
         x2        +                                                           

   CORO
G-|------------------------|-----------|--------------------|
D-|------------------------|-----------|--------------------|
A-|--------------5555------|-----------|----------5555------|
E-|-555555555555------0000-|-----------|-55555555------0000-|
                            variacion                                         

   BREAK
G-|----------------|
D-|----------------|
A-|----55-----00---|
E-|-5-----00-----0-|
                                                                              
  
   MIDDLE
G-|-------------------------------------|
D-|-------------------------------------|
A-|-------------------99999999-77777777-|
E-|-55555555-99999999-------------------|
                                                                              

G-|---------------------------------------|
D-|---------------------------------------|
A-|-------------------99999999-7---55-----|
E-|-55555555-99999999-----------------00--|
                                                                              

   FIN
G-|----------|
D-|----------|
A-|----------|
E-|-5--------|

Le saludo al Sergio Ontiveros de QB 2004, que hemos hecho una banda que
nunca pudimos reunirnos mas de una vez y para ensayar nunca, ibamos a tocar
pues por puntos en un festival del colegio, para lenguaje.

doky2007                                                   

Suggest correction
Give kudos to tab author, rate the tab!
1 2 3 4 5
comments
print report bad tab
guest
You may want to rate the tab now too:
select rating
Wanna post a correction for this tab? Suggest correction