Oops, an error
Loading. Please wait.

My Life Story Bass Tab

version 2
version 2

Whole song

Interactive

by MxPx
782 views 1 this week
no commentswrite comment
1 2 3 4 5
please rate
add to favorites
launch autoscroll
font size
0
reset
guitar tuner
Tab Pro tools
  • play this tab
  • loop segment
  • change instrument
  • show fretboard
  • metronome
×
Best way to learn
"My Life Story"
Autoscroll
slow
fast
+/-
esc
set tempo
stop
Intro
G|--------------------------------------------------|
D|--------------------------------------------------|
A|----5-5----5-5--000000000000-5-5--000000000000-5-5|
E|--------------------------------------------------|

Verse 1
G|--------------------------------------------------|
D|--------------------------------------------------|
A|0~--5-5--0~--5-5------------------555555555555----| x2
E|------------------5-5-4-4-2-2-0-0--------------0-0|

Chorus 1
G|--------------------------------|
D|--------------------------------|
A|000000000000000000000000-5-5----| x2
E|-----------------------------0-0|

Bridge 1
G|----------------|
D|----------------|
A|000000000000-5-5| x2
E|----------------|

Verse 2
G|--------------------------------------------------|
D|--------------------------------------------------|
A|0~--5-5--0~--5-5------------------555555555555----| x2
E|------------------5-5-4-4-2-2-0-0--------------0-0|

Chorus 2
G|--------------------------------|
D|--------------------------------|
A|000000000000000000000000-5-5----| x2
E|-----------------------------0-0|

G|----------------|
D|----------------|
A|00000000-5-5----| x2
E|-------------0-0|

Bridge 2
G|------------|
D|------------|
A|--55--------| x4
E|5----00-55-0|

G|--|
D|--|
A|--|
E|5-|

Pre-Chorus
G|-------------------------------------------------------------------|
D|----------------------------------4444444444444444-2222222222222222|
A|0000000000000000-4444444444444444----------------------------------|
E|-------------------------------------------------------------------|

G|----------------------|
D|----------------------|
A|0~--4~-----------5----|
E|--------2~--0------0-0|

Chorus 3

G|--------------------------------|
D|--------------------------------|
A|000000000000000000000000-5-5----| x4
E|-----------------------------0-0|

G|----------------|
D|----------------|
A|00000000-5-5----| x4
E|-------------0-0|

End
G|----------------|
D|----------------|
A|000000000000-5-5| x4
E|----------------|

G|---|
D|---|
A|0~-|
E|---|
comments
We did not receive enough feedback on this tab! Please rate:
print report bad tab
1 2 3 4 5
I want to post or [tab]
guest
You may want to rate the tab now too:
select rating
Please do not post tabs as comments. Select "correction" instead!