Oops, an error
Loading. Please wait.

Never Better Than Now Bass Tab

by MxPx
252 views 1 this week
no commentswrite comment
1 2 3 4 5
3 more votes to show rating
add to favorites
launch autoscroll
font size
0
reset
guitar tuner
Autoscroll
slow
fast
+/-
esc
set tempo
stop
Help us to improve Ultimate-Guitar.com Take our survey!
×
Author
Band: Mxpx
Album: Secret Weapon
Song: Never Better Than Now

Please rate

~ = let ring

Intro

G|------------------------------------------------------------------|
D|------------------------------------------------------------------| 
A|------------------------------------------------------------------|
E|-00-000-022-222-233-333-333-333-355-57-8-33-38-7-55-555-555-555-5-|

Verse (0:08)

G|-------------------------------------------------|
D|-------------------------------------------------| 
A|-77-7-7-755-5-5-522-2-2-233-3-3-322-2-2-233-3-3--|
E|-------------------------------------------------|

G|------------------------------------------------------------------|
D|------------------------------------------------------------------| 
A|-77-7-7-755-5-5-522-2-2-233-3-3-322-2-2-233-3-3-35555555555555555-|
E|------------------------------------------------------------------|

Pre-chorus (0:24)

G|------------------------------------------------------------------|
D|------------------------------------------------------------------| 
A|-----------------000000003333333377777777555555553333333333333333-|
E|-3333333322222222-------------------------------------------------|

Chorus (0:35)

G|------------------------------------------------------------------|
D|------------------------------------------------------------------| 
A|-----------------333333333333333377777777555555553333333333333333-|
E|-3333333333333333-------------------------------------------------|

Repeat:

Intro (0:47)
Verse (0:56)
Pre-chorus (1:13)
Chorus (1:24)

Bridge (1:34)

G|----------------------------------|
D|-44444444555555554444444455555555-| 
A|----------------------------------|
E|----------------------------------|

G|----------------------------------|
D|----454-----754-------------------| 
A|-7-----7-5-----753---3---3--3-3-3-|
E|----------------------------------|

G|----------------------------------|
D|-44444444555555554444444455555555-| 
A|----------------------------------|
E|----------------------------------|

G|----------------------------------|
D|----454-----754-------------------| 
A|-7-----7-5-----753---3---3--3-3-3-|
E|----------------------------------|

G|----------------------------------|
D|----454-----754-------------------| 
A|-7-----7-5-----753---3---3--3-3-3-|
E|----------------------------------|

Pre-chorus 2 (2:00)

G|------------------------------------------------------------------|
D|------------------------------------------------------------------| 
A|-----------------0~--------------7~--------------3-33333333333333-|
E|-3~------2~-------------------------------------------------------|

Chorus (2:12) x2

Ending (2:33)

G|-9~------7~------5~-------|
D|--------------------------| 
A|--------------------------|
E|--------------------------|
Suggest correction
Give kudos to tab author, rate the tab!
1 2 3 4 5
comments
print report bad tab
guest
You may want to rate the tab now too:
select rating
Wanna post a correction for this tab? Suggest correction