Oops, an error
Loading. Please wait.

Renaissance Bass Tab

by MxPx
383 views 1 this week
1 commentread comment
1 2 3 4 5
excellent!
x 1
add to favorites
launch autoscroll
font size
0
reset
guitar tuner
Tab Pro tools
  • play this tab
  • loop segment
  • change instrument
  • show fretboard
  • metronome
Autoscroll
slow
fast
+/-
esc
set tempo
stop
Contributor
Difficulty
intermediate
The took me a while hope you enjoy it

Tabbed by Taz Mckell.


Song:  Lonesome Town
Band:  MxPx
Album: The Renaissance EP

		          >=play a couple of time
	                  x=mute    /=slide down
		          ring=let the note sound
Intro x2
G|-------------------------|
D|-------------------------|
A|---------------------5>--|
E|-2-2-0-0-5>--2-2-0-0-----|

Verse
G|----------------------------------------------------------------|
D|----------------------------------------------------------------|
A|-----------x-x-5-x-x-5-x-x-5-----------x-x-5-x-x-5-x-x-5-x-x-5--|
E|-2-0-5>-4>-------------------2-0-5>-4>--------------------------|

Pre-Chorus
G|----------------------------------------------------------|
D|----------------------------------------------------------|
A|-2>-0>------------x-x-5-x-x-5-x-x-6-x-x-6-7>-5>-4>-2-2-2--|
E|-------0>---5>-4>-----------------------------------------|

Chorus
G|-----------------------------------------------------|
D|-----------------------------------------------------|
A|----4>----5>-/8>--------7>------4>----5>-/8>---------|
E|-5>----5>--------5>-7>-------5>----5>--------5>-7-0--|

Pre-Verse
G|-----------------|
D|-----------------|
A|-------------5>--|
E|-5>--2-2-0-0-----|

(Verse)
(Pre-Chorus)
(Chorus)
Then do this following the E|--7-0--------|
G|----------------------------------------|
D|----------------------------------------|
A|-----------------------5ring--/8ring----|
E|-5ring---2ring--0ring-------------------|

End with this
G|(x3)----------------------|-------------------------------------|
D|--------------------------|-------------------------------------|
A|--------------------------|-5>-7>--------------5ring------------|
E|-5--5-5-4--4-4-2--2-2-0-0-|-------5>-4>-2>-0>--------2-2-0-0-5--|End


Song:  Letting Go
Band:  MxPx
Album: The Renaissance EP
		   >=play a couple of time
	    	           ring=let the note sound
		           x=mute

Intro      /Verse x2
G|---------|------------------------|
D|---------|------------------------|
A|-5-5ring-|-5>----2>--------5>-----|
E|---------|----2>------3>------5>--|

Chorus
G|------------------------------------------------------------|
D|------------------------------------------------x-x-4-x-x-5-|
A|-5>------------------------------------5>-------------------|
E|----5>--3-3--3-2-3--3-2-3--3-2-3--3-2-----5>-3>-------------|

----------------------------------|
---------------------x-x-4-x-x-5--|
-5>--------5>---------------------|
----5>-3>-----5>-3>---------------|

Funny Bridge x2
G|--------------------|
D|--------------------|
A|-5--4-2--0-------0--|
E|-----------3-2-3----|

(Verse x2)
(Chorus)
(Funny bridge x2)
Then follow with this
G|-------------------------------------------------------|
D|-------------------------------------------------------|
A|-5-5--5-5-5--5-----------------------------2-2--2-0-0--|
E|---------------2-2--2-2-2--2-3-3--3-3-3--3-------------|

G|-------------------------------------------------|
D|-------------------------------------------------|
A|-5-5--5-5-5--5-----------------------------2--0--|
E|---------------2-2--2-2-2--2-3-3--3-3-3--3-------|

G|(x3)-----------|-----------------------|--------|
D|---------------|-----------------------|--------|
A|-5>-------2--0-|-5>--------x-x-2-x-x-0-|----0>--|
E|----2>-3>------|----2>-3>--------------|-3>-----|

(Chorus)

End with Funny bridge
G|---------------------------------------------|
D|---------------------------------------------|
A|-5-5-4-2-2-0-------0--5-5-4-2-2-0-------0-5--|
E|-------------3-2-3----------------3-2-3------|End


Song:  Party II (Time to go)
Band:  MxPx
Album: The Renaissance EP

		          >=play a couple of time
		          /=slide down
		          ring=let the note sound

Intro         /Verse
G|------------|---------------------------------|
D|------------|---------------------------------|
A|----0-0-0-0-|-0>--5>-/8/10--0>--5>-/8/10--0>--|
E|------------|---------------------------------|

Chorus
G|------------------------------------------------------|
D|------------------------------------------------------|
A|-5>-7>-0>--5>-7>-0>--5>-/8>---------------------5>-7--|
E|----------------------------5--5-4--4-2--2-0--0-------|

      /Verse
G|----|---------------------------------|
D|----|---------------------------------|
A|-0>-|-0>--5>-/8/10--0>--5>-/8/10--0>--|
E|----|---------------------------------|

(Chorus)

      /Bridge "Cleaning up is the very worst part"
G|----|(x3)----------|----------|---------|
D|----|--------------|----------|---------|
A|-0>-|-4ring--------|-2>-5>-7>-|-0>------|
E|----|--------2ring-|----------|---------|

(Chorus)
Then
G|------|
D|------|
A|-0>---|
E|------|

(Chorus "Bass only with Mike and others singing")

End (Watch timing)
G|-----|--------------------|
D|-----|--------------------|
A|-0>--|-5>-4>-2>-7>-0ring--|
E|-----|--------------------|End

Song:  Time Will Tell
Band:  MxPx
Album: The Renaissance EP
	     	    >=play a couple of time
		            ring=let the note sound
		            *=a pause  /=slide down
		            x=mute

Intro "Play Fast"
G|(x2)---------------------------|---------------------------|
D|-------------------------------|---------------------------|
A|-5--55555-3-6-5-0--00000-8-7-3-|-5-5--5-3-6-5-0-0--0-8-7-3-|
E|-------------------------------|---------------------------|

Verse x2
G|------------------------------------|
D|------------------------------------|
A|-5-5--5-3-3--3-6-6--6--------8>-----|
E|----------------------6-6--6----5>--|

Chorus x2
G|------------------------------------------------------------|
D|------------------------------------------------------------|
A|-5-5-5-------------------6-6--5-5-5-------------------6-6*--|
E|-------5-5-5-3-3-3-6-6-6------------5-5-5-3-3-3-6-6-6-------|

G|---------------------------------------------------------------|
D|---------------------------------------------------------------|
A|-5-5-5-------------------6-6--5-5-5-------------------6-6*-5*--|
E|-------5-5-5-3-3-3-6-6-6------------5-5-5-3-3-3-6-6-6----------|

Guitar do first part of intro
G|-------------------------------|
D|-------------------------------|
A|---------8-7-3-5*-------8-7-3--|
E|-------------------------------|

(Verse x2)

Chorus
G|------------------------------------------------------------|
D|------------------------------------------------------------|
A|-5-5-5-------------------6-6--5-5-5-------------------6-6*--|
E|-------5-5-5-3-3-3-6-6-6------------5-5-5-3-3-3-6-6-6-------|

G|------------------------------------------------------------|
D|------------------------------------------------------------|
A|-5-5-5-------------------6-6--5-5-5-------------------6-6*--|
E|-------5-5-5-3-3-3-6-6-6------------5-5-5-3-3-3-6-6-6-------|

Bridge                                     For the first 6 notes of
G|----------------------------------------|---------------|the bridge, here
is a
D|----------------6------6/7----6---7-7-6-|---------------|another way to
play that part.
A|-----6-----5-5----5--5------5---5-------|-----6-----x---|That little part
was tricky to
E|-5-4---5-4------------------------------|-5-4---5-4-----|to hear but it
looks like this.

G|--------------------------------------------------------|
D|----6------6/7----6---7-7-6----6------6/7----6---7-7-6--|
A|-5----5--5------5---5-------5----5--5------5---5--------|
E|--------------------------------------------------------|

G|---------------------------------|
D|----6------6/7----6---7-7-6ring--|
A|-5----5--5------5---5------------|
E|---------------------------------|

End "Fast"
G|----------------------------------------------------------|
D|----------------------------------------------------------|
A|-5-5-5-------------------6-6--5-5-5-------------------6-6-|
E|-------5-5-5-3-3-3-6-6-6------------5-5-5-3-3-3-6-6-6-----|

------------------------------|(x2)--------------------------|
------------------------------|------------------------------|
-5-5-5-------------------6-6*-|-5-5-5-------------------6-6--|
-------5-5-5-3-3-3-6-6-6------|-------5-5-5-3-3-3-6-6-6------|End


Song:  The Opposite
Band:  MxPx
Album: The Renaissance Ep
		    >=play a couple of time
		            ring=let the note sound
		            /=slide down  \=slide up

Intro
G|---------------------------------|
D|---------------------------------|
A|-------------5>-7>--------5>-7>--|
E|---12\-5>-7>--------5>-7>--------|

Verse
G|(x2)---------|---------------------------------------------------------------|
D|-------------|------------------------------------------4h5p4-3ring--/7>-9>--|
A|-------5>----|----0-2-4-2-0-----0-2-4-2-0---/5\---0-2-4----------------------|
E|-5>-3>----0>-|-2------------2-0-----------2-----2----------------------------|

Chorus x2
G|--------------|
D|--------------|
A|-------5>-7>--|
E|-5>-7>--------|

(Verse)
(Chorus x4)

During guitar solo
G|(x2)---------|---------------------------------------------------------------|
D|-------------|------------------------------------------4h5p4-3ring--/7>-9>--|
A|-------5>----|----0-2-4-2-0-----0-2-4-2-0---/5\---0-2-4----------------------|
E|-5>-7>----0>-|-2------------2-0-----------2-----2----------------------------|

End with chorus x4
End on E|--5ring--|


Song:  Don't Look Back
Band:  MxPx
Album: The Renaissance EP
		     >=play a couple of time
		             *=a pause
                             ring and r=let the note sound

Intro                   /Verse
G|----------------------|-------------------------|
D|----------------------|-------------------------|
A|---3------------------|---------3>--------------|
E|-1---3--3-3-3-3-3-3-0-|-1>--3>-------1>--3>--*--|

Chorus
G|--------------------------------------------|
D|--------------------------------------------|
A|-3>-2>-----------3>-2>----------------------|
E|-------1>-3ring--------1>-3>-5>--5-3-1>-3>--|

G|-------------------------------------------------|
D|-------------------------------------------------|
A|-3>-2>----------------------3-3-3----------------|
E|-------1>-3>-5>--5-3-1>-3>--------3-3-3-3-3-3-0--|

(Verse)

Chorus 2
G|--------------------------------------------|
D|--------------------------------------------|
A|-3>-2>-----------3>-2>----------------------|
E|-------1>-3ring--------1>-3>-5>--5-3-1>-3>--|

G|----------------------------------------------------------------------------|
D|----------------------------------------------------------------------------|
A|-3>-2>----------------------3-3-3----3-3-3----8-8-8----3-3-3----------------|
E|-------1>-3>-5>--5-3-1>-3>-----------------------------------3-3-3-3-3-3-0--|

Bridge
G|(x2)-----------------------|------------|
D|---------------------------|------------|
A|------------3r--2r--0r-----|------------|
E|-1ring--3r--------------3r-|-1>--3>--*--|

End with Chorus but don't play the E|--3-3-3-3-3-3-0--|

Song:  Talk Of The Town
Band:  MxPx
Album: The Renaissance EP
	         >=play a couple of time
		         ring=let the note sound
		         /=slide down  \=slide up
		         *=a pause  x=mute

Intro
G|(x3)----------------------------------|-----------------|
D|--------------------------------------|-----------------|
A|---------3-----3-5----------3-----3-6-|-5>-3/6-6-3/6-6--|
E|-5-5-3-5---5-3------5-5-3-5---5-3-----|-----------------|

Verse            /Pre-Chorus
G|(x4)-----------|(x2)--------------------------|
D|---------------|------------------------------|
A|---------3-5-6-|-----------------------3-5-6--|
E|-5>--3-3-------|-5-5-x-3-5-5-x-3-5-5-x--------|

Chorus x4               /Bridge
G|----------------------|(x3)------|(x1)-------|
D|----------------------|----------|-----------|
A|----3>----5-5-5-5-6-7-|----6>-3>-|----6>-7>--|
E|-5>----3>-------------|-5>-------|-5>--------|

Chorus                  /Then end with
G|(x4)------------------|-------------------------------------------------------|
D|----------------------|-------------------------------------------------------|
A|----3>----5-5-5-5-6-7-|-----3-5-6-5-3-----------3-5-6-5-3-----------3-5-6-5-3-|
E|-5>----3>-------------|-5*------------5>-3-3--3-----------5>-3-3--3-----------|

---------------------------------------------------------|
---------------------------------------------------------|
-----------3-4-6-5-3----3>-5-5-5-6-5-3----3>-/6ring------|
-5>-3-3--3-----------5>----------------5>------------5\--|End


Song:  The Struggle
Band:  MxPx
Album: The Renaissance EP
		    >=play a couple of time
		            ring and r=let the note sound
		            /=slide down  \slide up
		            x=mute

Intro
G|-----------------------------------------------------------|
D|-----------------------------------------------------------|
A|----------5--------------5---------------------------------|
E|---0-2-x>---5-x>--0-2-x>---5--5-5--5--5-5-4-4-4-4-4-4-4-4--|
All x>=played 12 times

Verse x2
G|----------------------------------------------------|
D|----------------------------------------------------|
A|-4>-5>-----------5>-7-7--7--7-7--7--7-7--7--7-7--7--|
E|-------5>-4>-\2>------------------------------------|

Chorus                         /Pre-Verse
G|(x4)-------------------------|------------------------------|
D|-----------------------------|-----------------------7\(3)--|
A|-9-9--9-4-4--4-5-5--5-7-7--7-|----5r----5r----5r-7>---------|
E|-----------------------------|-5r----5r----5r---------------|

(verse x2)
(Chorus x4)

Pre-Verse                 Again, for all x>=played 12 times
G|----------------------|--------------------------------------------------|
D|----------------------|--------------------------------------------------|
A|----5r----5r----5r-7>-|--------5--------------5--------------------------|
E|-5r----5r----5r-------|-0-2-x>---5-x>--0-2-x>---5--5-5--5--5-5-4-4-4-4-4-|

G|---------------------------------------------------------|
D|---------------------------------------------------------|
A|--------------5-------------------------5-7--7-7-7-7-7-7-|
E|-0-2--2-2-2-2---5--5-5-5-5-0-2--2-2-2-2------------------|

End
G|-------------------------------|
D|-------------------------------|
A|----5r----5r----5r-7>--/9ring--|
E|-5r----5r----5r----------------|End

Song:  Yuri Wakes Up Screaming
Band:  MxPx
Album: The Renaissance EP
	     >=play a couple of time
	             ring and r=let the note sound
	             /=slide down  \=slide up
	             *=a pause

Intro        /Verse                      /Verse
G|-----------|(x2)------|(played slower)-|(x2)-------|
D|-----------|----------|----------------|-----------|
A|------/6-5-|-------3>-|---------3>-----|-------3>--|
E|-3>--------|-3>-0>----|-3>--0>---------|-3>-0>-----|

                             /Verse      "Oh Yuri wakes up sceaming"
G|---------------------------|(x2)------|-------------|
D|---------------------------|----------|-------------|
A|---------------------------|-------3>-|-------------|
E|-1-3r--1-3r--1-3r--1-3r-3*-|-3>-0>----|-3-3*--------|

                  /Verse      Then
G|(played slower)-|(x4)------|(Yuri talks and says Mommy)-|
D|----------------|----------|----------------------------|
A|---------3>-----|-------3>-|----------------------------|
E|-3>--0>---------|-3>-0>----|-3ring----------------------|

Cool Part
G|-------------------6-----5-------------------6-----5-|
D|-----------------5-----4-------------------5-----4---|
A|---------------6-----5-------------------6-----5-----|
E|-3-3-3-0-0-0-0-------------3-3-3-0-0-0-0-------------|

G|-------------------6------5---------------|
D|-----------------5------4-----------------|
A|---------------6-----5------3>-/6>--------|
E|-3-3-3-0-0-0-0---------------------3ring--|End


Thanks for baring with me through this long tab, and remember

DONT STEAL THIS. thanks.
comments
We did not receive enough feedback on this tab! Please rate:
print report bad tab
1 2 3 4 5
1 comment total.
0 reply
chrisjenks wrote on April 24 2008, 08:02 pm

good job

I want to post or [tab]
guest
You may want to rate the tab now too:
select rating
Please do not post tabs as comments. Select "correction" instead!