Oops, an error
Loading. Please wait.

Running Away Tab

by MxPx
449 views 1 this week
no commentswrite comment
1 2 3 4 5
2 more votes to show rating
add to favorites
launch autoscroll
font size
0
reset
how to read this tab
guitar tuner
Autoscroll
slow
fast
+/-
esc
set tempo
stop
Help us to improve Ultimate-Guitar.com Take our survey!
×
Author
Band - MXPX
Song - Running Away
Album - Ten Years And Running
tabbed by Turkeyrioter44@yahoo.com

*= Let chord ring

Intro
------------------------------------------------------------|
------------------------------------------------------------|
------------------------------------------------------------|
-33-2-----------2-----2---33-2-----------2-----2---33-2-----|
------5-3-5-3-3---3-3---2------5-3-5-0-0---0-0----------535-|
-------------------------------------------------3----------|

-----------------------------------------------------------|
-----------------------------------------------------------|
-----------------------------------------------------------|
----2-----2-0-33-2-----------2-----2-----------------------|
-------------------5-3-5-----------------------------------|
1-1---1-1----------------1-1---1-1-------------------------|

Verse
-----------------------------------------------------------|
-----------------------------------------------------------|
-----5-4-5*-----------------------------555555-----5-4-----|
-6-5-5-4-5*-222222222222-333333-666-555-555555-6-5-5-4-----|
-6-5-3-2-3*-222222222222-333333-666-555-333333-6-5-3-2-----|
-4-3--------000000000000-111111-444-333--------4-3---------|

-----------------------------------------------------------|
-----------------------------------------------------------|
-555555555555-----------------------------5*-4*------------|
-555555555555-22222222222-333333-666-5555-5*-5*------------|
-333333333333-22222222222-333333-666-5555-3*-2*------------|
--------------00000000000-111111-444-3333------------------|

Pre-Chorus (palm muted)
-----------------------------------------------------------|
-----------------------------------------------------------|
-----------------------------------------------------------|
---2-3-2---2-3-2---2-3-2---232---232---232---232---232-----|
-0-------0-------0-------0---------------------------------|
-------------------------------3-----3-----3-----3---------|

-----------------------------------------------------------|
-----------------------------------------------------------|
-----------------------------------------------------------|
---------------------------55555555------------------------|
33333333-55555555-33333333-55555555------------------------|
11111111-33333333-11111111-33333333------------------------|

Chorus #1
-----------------------------------------------------------|
-----------------------------------------------------------|
-----------------------------------------------------------|
---2-----2-----2---33-2----------2-----2---33-2------------|
-3---3-3---3-3---2------5-3-5-0-0--0-0----------5-3-5------|
-----------------------------------------3-----------------|

-----------------------------------------------------------|
-----------------------------------------------------------|
-------------------5555555555------------------------------|
3333333-666-555555-5555555555------------------------------|
3333333-666-555555-3333333333------------------------------|
1111111-444-333333-----------------------------------------|

Bridge
-----------------------------------------------------------------|
-6-6-6-6-6-6-6-6-------------------------------------------------|
-7-7-7-7-7-7-7-7-----------------5-5-5-5-5-5-5-5-----------------|
-7-7-7-7-7-7-7-7-3-3-3-3-3-3-3-3-5-5-5-5-5-5-5-5-3-3-3-3-5-5-5-5-|
-5-5-5-5-5-5-5-5-3-3-3-3-3-3-3-3-3-3-3-3-3-3-3-3-3-3-3-3-5-5-5-5-|
-----------------1-1-1-1-1-1-1-1-----------------1-1-1-1-3-3-3-3-|

                                            p.m. * * * * * * * *
Last Chorus
-----------------------------------------------------------|
-----------------------------------------------------------|
-----------------------------------------------------------|
---2-----2-----2---33-2----------2-----2---33-2------------|
-3---3-3---3-3---2------5-3-5-0-0--0-0----------5-3-5------|
-----------------------------------------3-----------------|

-----------------------------------------------------------|
-----------------------------------------------------------|
-------------------5555555555------------------------------|
3333333-666-555555-5555555555------------------------------|
3333333-666-555555-3333333333------------------------------|
1111111-444-333333-----------------------------------------|

-----------------------------------------------------------|
-----------------------------------------------------------|
-----------------------------------------------------------|
---2-----2-----2---33-2----------2-----2---33-2------------|
-3---3-3---3-3---2------5-3-5-0-0--0-0----------5-3-5------|
-----------------------------------------3-----------------|

-----------------------------------------------------------|
-----------------------------------------------------------|
-------------------5555555555------------------------------|
3333333-666-555555-5555555555------------------------------|
3333333-666-555555-3333333333------------------------------|
1111111-444-333333-----------------------------------------|

Outro
-----------------------------------------------------------|
-----------------------------------------------------------|
-----------------------------------------------------------|
-2-2-2-2-0-0-0-0-2-2-2-2-5-5-5-5--33333-6666-5555----------|
--3-3-3-3-2-2-2-2-0-0-0-0---------33333-6666-5555----------|
--------------------------3-3-3-3-11111-4444-3333----------|

-----------------------------------------------------------|
-----------------------------------------------------------|
-----------------------------------------------------------|
-2-2-2-2-0-0-0-0-2-2-2-2-5-5-5-5--7-7-7-7-10--10--9--9-----|
--3-3-3-3-2-2-2-2-0-0-0-0----------8-8-8-8--11--11-10-10---|
--------------------------3-3-3-3--------------------------|

----
----
----
-2*-
-3*-
----

Order-
Intro
Verse
Pre Chorus
Chorus 1
Verse
Chorus 1
Bridge
Pre Chorus
Last Chorus
Outro


There you go! The first "running away" tab for this website!
Any questions, e-mail me @ turkeyrioter44@yahoo.com
Suggest correction
Give kudos to tab author, rate the tab!
1 2 3 4 5
comments
print report bad tab
guest
You may want to rate the tab now too:
select rating
Wanna post a correction for this tab? Suggest correction