Oops, an error
Loading. Please wait.

Secret Weapon Tab

version 1
version 1

Whole song

Interactive

by MxPx
7,622 views 9 this week
8 commentsread comments
1 2 3 4 5
accurate
x 3
add to favorites
launch autoscroll
font size
0
reset
how to read this tab
guitar tuner
Autoscroll
slow
fast
+/-
esc
set tempo
stop
Help us to improve Ultimate-Guitar.com Take our survey!
×
Contributor
J.A.R. 752
This is a really good song by one of my favorite bands ever, Mxpx. i think some parts
be wrong but i tried my best to figure it out. btw i din't tab out the solo part that
take 4ever to figure out

INTRO
e|-----------------------------------------------------------|
B|-----------------------------------------------------------|
G|----------------5--5--5-5-5-5---------------7--7--7-7-7-7--|
D|-7--7--7-7-7-7--x--x--x-x-x-x-5--5--5-5-5-5-x--x--x-x-x-x--|
A|-x--x--x-x-x-x--3--3--3-3-3-3-x--x--x-x-x-x-5--5--5-5-5-5--|
E|-5--5--5-5-5-5----------------3--3--3-3-3-3----------------|
   1  2  3 & 4 &  1  2  3 & 4 &

  VERSE
e|-------------------------------------------------------------------------------|
B|-------------------------------------------------------------------------------|
G|----------------5--5--5-5-5-5-----------------7--7--7-7-7-7--------------------|
D|-7--7--7-7-7-7--5--5--5-5-5-5--5--5--5-5-5-5--7--7--7-7-7-7--------------------|
A|-7--7--7-7-7-7--3--3--3-3-3-3--5--5--5-5-5-5--5--5--5-5-5-5--------------------|
E|-5--5--5-5-5-5-----------------3--3--3-3-3-3-----------------------------------|

   This is a part they play right before the chorus, play it 4x
e|-----------------------------------------------------------------------------|
B|-----------------------------------------------------------------------------|
G|--9--9--9-9-9-9--------------------------------------------------------------|
D|--9--9--9-9-9-9--------------------------------------------------------------|
A|--7--7--7-7-7-7--------------------------------------------------------------|
E|-----------------------------------------------------------------------------|
  CHORUS
e|----------------------------------------------------------------------------|
B|----------------------------------------------------------------------------|
G|----------------------------------------------------------------------------|
D|--3--3-3--3-3--3--3-3--3-3--5--5-5--5-5--5--5-5--5-5------------------------|
A|--3--3-3--3-3--3--3-3--3-3--5--5-5--5-5--5--5-5--5-5------------------------|

E|--1--1-1--1-1--1--1-1--1-1--3--3-3--3-3--3--3-3--3-3-----------------------   1  2 &  & 4  1  2 &  & 4

e|---------------------------------------------------------------------------|
B|---------------------------------------------------------------------------|
G|--10--10-10-1010-10-9--9-9-9-9-9--7--7-7-7-7-7--12--1212121212-------------|
D|--x----x-x--x-x--x--x--x-x-x-x-x--x--x-x-x-x-x---x--x-x-x-x-x--------------|
A|--8----8-8-8--8--8--7--7-7-7-7-7- 5--5-5-5-5-5--10--1010101010-------------|
E|---------------------------------------------------------------------------||  1   2  
3  &  4  1  2 & 3 & 4

  BRIDGE
e|------------------------------------------------------------------|
B|------------------------------------------------------------------|
G|--5--5-5-5-5-5-5-5-5-5-5------------------------------------------|
D|--5--5-5-5-5-5-5-5-5-5-5-5-5-5-5--7--7-7-7-7-7-7-7-7-7-7-5-5-5-5--|
A|--3--3-3-3-3-3-3-3-3-3-3-2-2-2-2--7--7-7-7-7-7-7-7-7-7-7-5-5-5-5--|
E|----------------------------------5--5-5-5-5-5-5-5-5-5-5-3-3-3-3--|
    1  2 & 3 & 4 & 1 & 2& 3 & 4 &

e|----------------------------------|
B|----------------------------------|
G|----------------------------------|
D|--3--3-3-3-3-3-3--5--5-5-5-5-5-5--|
A|--3--3-3-3-3-3-3--5--5-5-5-5-5-5--|
E|--1--1-1-1-1-1-1--3--3-3-3-3-3-3--|
    1  2 & 3 & 4 &  1  2 @ 3 @ 4 &

a second guitar plays these chords during the solo
e|-----------------------------------------------------------------------------|
B|-----------------------------------------------------------------------------|
G|-----------------------------------------------------------------------------|
D|---7------3-------3----5-----------------------------------------------------|
A|---7------3-------3----5-----------------------------------------------------|
E|---5------1-------1----3-----------------------------------------------------|

That's pretty much it, listen to the song and u can probally figure it out by yourself
Suggest correction What's this?
You can suggest a correction to this tab. Community and Mods will review your correction and vote to approve or reject it.
comments
We did not receive enough feedback on this tab! Please rate:
print report bad tab
1 2 3 4 5
8 comments total. Showing first comments.
+1 reply
ShrimpthePimp 1,091 wrote on September 22 2007, 07:55 pm

need solo!

0 reply
J.A.R. 752 wrote on September 24 2007, 07:55 pm

yeah, i know ive tried figuring out the solo but everytime i do it doesn't sound right

0 reply
fifer 2,550 wrote on September 29 2007, 08:00 pm

I think the chorus is wrong

I want to post or [tab]
guest
You may want to rate the tab now too:
select rating
Please do not post tabs as comments. Select "correction" instead!