Oops, an error
Loading. Please wait.

Slow Ride Tab

by MxPx
1,085 views 1 this week
no commentswrite comment
1 2 3 4 5
3 more votes to show rating
add to favorites
launch autoscroll
font size
0
reset
how to read this tab
guitar tuner
Autoscroll
slow
fast
+/-
esc
set tempo
stop
Help us to improve Ultimate-Guitar.com Take our survey!
×
Author
-----------------------------------------------------------------
Slow Ride - MXPX
-----------------------------------------------------------------
Tabbed by: Bair
Email: bair_morritt@hotmail.com

Tuning: Standard

Intro:
e|----------------------------------------------|
B|----------------------------------------------|
G|--------777--------777--------777--------777--|
D|--7777--777--7777--777--7777--777--7777--777--|
A|--7777--555--7777--555--7777--555--7777--555--|
E|--5555-------5555-------5555-------5555-------|

Verse (P.M):
e|----------------------------------------------|
B|----------------------------------------------|
G|--------777--------777--------777--------777--|
D|--7777--777--7777--777--7777--777--7777--777--|
A|--7777--555--7777--555--7777--555--7777--555--|
E|--5555-------5555-------5555-------5555-------|
"We accelerate the death process...."

e|------------------------------------------|
B|------------------------------------------|
G|------------------777--------777----------|
D|--33333333--7777--777--7777--777----------|
A|--33333333--7777--555--7777--555----------|
E|--11111111--5555-------5555---------------|
"Open the door to your mind...."

e|----------------------------------------------|
B|----------------------------------------------|
G|--------777--------777--------777--------777--|
D|--7777--777--7777--777--7777--777--7777--777--|
A|--7777--555--7777--555--7777--555--7777--555--|
E|--5555-------5555-------5555-------5555-------|
"A window breaks so easily...."

e|------------------------------------------|
B|------------------------------------------|
G|------------------------------------------|
D|--3333333333333333--5555555555555555------|
A|--3333333333333333--5555555555555555------|
E|--1111111111111111--3333333333333333------|
"But pain brings you, closer to...."

Chorus:
e|---------------------------------------------|
B|---------------------------------------------|
G|------------44444444-------------------------|
D|--77777777--44444444--3333333333333333-(X2)--|
A|--77777777--22222222--3333333333333333-------|
E|--55555555------------1111111111111111-------|
"For the first time in a long time we can...."

e|----------------------------------------------|
B|----------------------------------------------|
G|--------777--------777--------777--------777--|
D|--7777--777--7777--777--7777--777--7777--777--|
A|--7777--555--7777--555--7777--555--7777--555--|
E|--5555-------5555-------5555-------5555-------|
"DOwn!!..."

Verse 2: 

(Only Bass) "A Pictures worth a thousand words...."

e|------------------------------------------|
B|------------------------------------------|
G|------------------777--------777----------|
D|--33333333--7777--777--7777--777----------|
A|--33333333--7777--555--7777--555----------|
E|--11111111--5555-------5555---------------|
"There's nothing to say that makes...."

(Only Bass) "Machines are always breaking down...."

e|------------------------------------------|
B|------------------------------------------|
G|------------------------------------------|
D|--3333333333333333--5555555555555555------|
A|--3333333333333333--5555555555555555------|
E|--1111111111111111--3333333333333333------|
"But pain brings you, closer to...."

-Then Chorus

Bridge:
e|----------------------------------------------|
B|----------------------------------------------|
G|------------------------------777-------------|
D|--7777--333--7777--333--7777--777--3333--555--|
A|--7777--333--7777--333--7777--555--3333--555--|
E|--5555--111--5555--111--5555-------1111--333--|

e|--------------------------------------------|
B|--------------------------------------------|
G|--5--------5--------------------------------|
D|--5-3-2-0--5-3-2-0--3-3-2-0--3-3-2-0--(X2)--|
A|--3--------3--------3--------3--------------|
E|--------------------1--------1--------------|
"Don't fall asleep behind the wheel...."

e|----------------------------------------------|
B|----------------------------------------------|
G|------------------------------777-------------|
D|--7777--333--7777--333--7777--777--3333--555--|
A|--7777--333--7777--333--7777--555--3333--555--|
E|--5555--111--5555--111--5555-------1111--333--|

-Then Chorus
-Then Intro

-------------------------------------------------------
Lyrics:

We accelerate the death process
As we draw towards the end
Open the door to your mind 
And climb deep inside

A window breaks so easily
Glass cuts skin in the process
But pain brings you
Closer to, feeling more alive

For the first time in a long time
You can take that slow ride...
The first time in a long time
You can take that slow ride down

A pictures worth a thousand words
A thousand words are useless
But theres nothing to say
That makes any sense any more

Machines are always breaking down 
The people always turn away
But pain brings you
Closer to, feeling so alive

For the first time in a long time
You can take that slow ride...
The first time in a long time
You can take that slow ride down

Don't fall asleep 
Behind the wheel
Just slow it down
Don't fall asleep 
Behind the wheel
Your too close now

For the first time in a long time
You can take that slow ride...
The first time in a long time
You can take that slow ride down.
Suggest correction
Give kudos to tab author, rate the tab!
1 2 3 4 5
comments
print report bad tab
guest
You may want to rate the tab now too:
select rating
Wanna post a correction for this tab? Suggest correction