Oops, an error
Loading. Please wait.

Study Humans Tab

by MxPx
106 views 1 this week
no commentswrite comment
1 2 3 4 5
please rate
add to favorites
launch autoscroll
font size
0
reset
how to read this tab
guitar tuner
Autoscroll
slow
fast
+/-
esc
set tempo
stop
Help us to improve Ultimate-Guitar.com Take our survey!
×
MxPx - Study Humans
Tabbed by: Matt

Chords used:
   F# E A B C#
e|-------------|
B|-------------|
G|----9-----6--|
D|-4--9-7-9-6--|
A|-4--7-7-9-4--|
E|-2----5-7----|

Intro riff: (x2)
e|----------------------------------------------------------------------------|
B|----------------------------------------------------------------------------|
G|----------------7h9----------------9-7----------------9-7-9h7--9h7-9h7--9-7-|
D|-----7-7-8-8-9-9--------7-7-8-8-9-9-------7-7-8-8-9-9--------7----7---7-----|
A|-7-7----------------7-7---------------7-7-----------------------------------|
E|----------------------------------------------------------------------------|

Chorus:
E                        A         B
Every day I go to school and study humans
C#                         A  B
I sit and watch them all go by
E                       A     B
Everyday's a new day to study humans
C#                               A   B
I sit and observe this girl named Bri with my eye

Riff 1:
e|-0-0-0-0-----------------0-0-0-0-------------------|
B|---------0-------------0---------0-----------------|
G|-----------2-1h2p1h2p1-------------2-1h2p1h2p1---1-|  (x2)
D|-----------------------------------------------2---|
A|---------------------------------------------------|
E|---------------------------------------------------|

Verse 1
F#             A                                  (riff 1)
All those mannerisms and the funny things they do
F#               A                                (riff 1)
Humans and their dogmas, they defend so selfishly

(Chorus)
(Riff 1)x2

Verse 2
F#                   A                                   (riff 1)
I'm planning to take over cause I hate living on the moon
F#                 A                                     (riff 1)
They won't get suspicious cause the soaps are on at noon

(Chorus)
(Riff 1) x2
(Intro riff) x2

End

........................................................................
That's it pretty easy!
Suggest correction
What's this?
You can suggest a correction to this tab. Community and Mods will review your correction and vote to approve or reject it.
comments
We did not receive enough feedback on this tab! Please rate:
print report bad tab
1 2 3 4 5
guest
You may want to rate the tab now too:
select rating
Please do not post tabs as comments. Select "correction" instead!