Oops, an error
Loading. Please wait.

Teenage Politics Tab

version 1
version 1

Whole song

Interactive

by MxPx
1,759 views 1 this week
no commentswrite comment
1 2 3 4 5
excellent!
x 3
add to favorites
launch autoscroll
font size
0
reset
how to read this tab
guitar tuner
Autoscroll
slow
fast
+/-
esc
set tempo
stop
Help us to improve Ultimate-Guitar.com Take our survey!
×
TEENAGE POLITICS - MxPx

By: Mike Rose (miker@blvl.igs.net)

Intro: X2
e|------------------------|------------------------|        
B|------------------------|------------------------|
G|--------------8--7--5/7-|--------------8--7--5/7-|
D|-8--8--8-8-8--8--7--5/7-|-5--5--5-5-5--8--7--5/7-|                                  
A|-8--8--8-8-8--6--5--3/5-|-5--5--5-5-5--6--5--3/5-|
E|-6--0--6-6-6------------|-3--0--3-3-3------------|

e|------------------------|-------------------------------|
B|------------------------|-------------------------------|
G|-5--5--5-5-5--8--7--5/7-|--------------8--7--10--10-10--|
D|-5--5--5-5-5--8--7--5/7-|-3--0--3-3-3--8--7--10--10-10--|
A|-3--0--3-3-3--6--5--3/5-|-3--0--3-3-3--6--5--8---8--8---|
E|------------------------|-1--0--1-1-1-------------------|

verse:
e|---------------------------|---------------------------|
B|---------------------------|---------------------------|
G|-3--3--3-3-3--3--3--3-3-3--|---------------------------|
D|-3--3--3-3-3--3--3--3-3-3--|-5--5--5-5-5--5--5--5-5-5--|
A|-1--1--1-1-1--1--1--1-1-1--|-5--5--5-5-5--5--5--5-5-5--|
E|---------------------------|-3--3--3-3-3--3--3--3-3-3--|

  no  i'm  not    mad      but i think they forget

e|---------------------------|---------------------------|
B|---------------------------|---------------------------|
G|-5--5--5-5-5--5--5--5-5-5--|---------------------------|
D|-5--5--5-5-5--5--5--5-5-5--|-3--3--3-3-3--3--3--3-3-3--|
A|-3--3--3-3-3--3--3--3-3-3--|-3--3--3-3-3--3--3--3-3-3--|
E|---------------------------|-1--1--1-1-1--1--1--1-1-1--|

  what it's like and how    hard it is to be a teenager

e|---------------------------|---------------------------|
B|---------------------------|---------------------------|
G|-3--3--3-3-3--3--3--3-3-3--|---------------------------|
D|-3--3--3-3-3--3--3--3-3-3--|-5--5--5-5-5--5--5--5-5-5--|
A|-1--1--1-1-1--1--1--1-1-1--|-5--5--5-5-5--5--5--5-5-5--|
E|---------------------------|-3--3--3-3-3--3--3--3-3-3--|

  this is a new day and age     we read a different book

e|---------------------------|---------------------------|
B|---------------------------|---------------------------|
G|-5--5--5-5-5--5--5--5-5-5--|---------------------------|
D|-5--5--5-5-5--5--5--5-5-5--|-3--3--3-3-3--3--3--3-3-3--|
A|-3--3--3-3-3--3--3--3-3-3--|-3--3--3-3-3--3--3--3-3-3--|
E|---------------------------|-1--1--1-1-1--1--1--1-1-1--|

  here elvis ain't the rage     and polyester ain't the 

e|------------------------------------------------------|  
B|------------------------------------------------------|
G|-3-3--x-x-x--3--3-3--x-x-x-x--3-3--x-x-x--3--3-3--3-3-|
D|-3-3--x-x-x--3--3-3--x-x-x-x--3-3--x-x-x--3--3-3--3-3-|
A|-1-1--x-x-x--1--1-1--x-x-x-x--1-1--x-x-x--1--1-1--0-0-|
E|------------------------------------------------------|

  look
e|---------------------------|---------------------------|
B|---------------------------|---------------------------|
G|-3--3--3-3-3--3--3--3-3-3--|---------------------------|
D|-3--3--3-3-3--3--3--3-3-3--|-5--5--5-5-5--5--5--5-5-5--|
A|-1--1--1-1-1--1--1--1-1-1--|-5--5--5-5-5--5--5--5-5-5--|
E|---------------------------|-3--3--3-3-3--3--3--3-3-3--|

  and will we change at all          when we get old?

e|---------------------------|---------------------------|
B|---------------------------|---------------------------|
G|-5--5--5-5-5--5--5--5-5-5--|---------------------------|
D|-5--5--5-5-5--5--5--5-5-5--|-3--3--3-3-3--3--3--3-3-3--|
A|-3--3--3-3-3--3--3--3-3-3--|-3--3--3-3-3--3--3--3-3-3--|
E|---------------------------|-1--1--1-1-1--1--1--1-1-1--|

  or will we be the same?       never do what were told

e|---------------------------|---------------------------|
B|---------------------------|---------------------------|
G|-3--3--3-3-3--3--3--3-3-3--|---------------------------|
D|-3--3--3-3-3--3--3--3-3-3--|-5--5--5-5-5--5--5--5-5-5--|
A|-1--1--1-1-1--1--1--1-1-1--|-5--5--5-5-5--5--5--5-5-5--|
E|---------------------------|-3--3--3-3-3--3--3--3-3-3--|

  well that depends on you  re you doing the right thing?

e|---------------------------|---------------------------|
B|---------------------------|---------------------------|
G|-5--5--5-5-5--5--5--5-5-5--|---------------------------|
D|-5--5--5-5-5--5--5--5-5-5--|-3--3--3-3-3--3--3--3-3-3--|
A|-3--3--3-3-3--3--3--3-3-3--|-3--3--3-3-3--3--3--3-3-3--|
E|---------------------------|-1--1--1-1-1--1--1--1-1-1--|

  it's not about control      it's about you and me and 

e|------------------------------------------------------|  
B|------------------------------------------------------|
G|-3-3--x-x-x--3--3-3--x-x-x-x--3-3--x-x-x--3--3-3--3-3-|
D|-3-3--x-x-x--3--3-3--x-x-x-x--3-3--x-x-x--3--3-3--3-3-|
A|-1-1--x-x-x--1--1-1--x-x-x-x--1-1--x-x-x--1--1-1--0-0-|
E|------------------------------------------------------|

  understanding

chourus:
e|-------------------------------|-------------------------------|
B|-------------------------------|-------------------------------|
G|-5--5--5-5-5---5--5--5--5-5-5-5|-------------------------------|
D|-5--5--5-5-5---5--5--5--5-5-5-5|-3--3--3-3-3--3--3--3--3-3-----|
A|-3--3--3-3-3---3--3--3--3-3-3-3|-3--3--3-3-3--3--3--3--3-3-----|
E|-------------------------------|-1--1--1-1-1--1--1--1--1-1-----|

                 teenage politics    it's too confusing

e|-------------------------------|-------------------------------|
B|-------------------------------|-------------------------------|
G|-5--5--5-5-5---5--5--5--5-5-5-5|-------------------------------|
D|-5--5--5-5-5---5--5--5--5-5-5-5|-3--3--3-3-3--3--3--3--3-3-----|
A|-3--3--3-3-3---3--3--3--3-3-3-3|-3--3--3-3-3--3--3--3--3-3-----|
E|-------------------------------|-1--1--1-1-1--1--1--1--1-1-----|

                 politics shmolitics      it's too confusing

e|-------------------------------|-------------------------------|
B|-------------------------------|-------------------------------|
G|-5--5--5-5-5---5--5--5--5-5-5-5|-------------------------------|
D|-5--5--5-5-5---5--5--5--5-5-5-5|-3--3--3-3-3--3--3--3--3-3-----|
A|-3--3--3-3-3---3--3--3--3-3-3-3|-3--3--3-3-3--3--3--3--3-3-----|
E|-------------------------------|-1--1--1-1-1--1--1--1--1-1-----|

                               is it time again to disagree

e|-------------------------------|-------------------------------|
B|-------------------------------|-------------------------------|
G|-5--5--5-5-5---5--5--5--5-5-5-5|-------------------------------|
D|-5--5--5-5-5---5--5--5--5-5-5-5|-3--3--3-3-3--3--3--3--3-3-----|
A|-3--3--3-3-3---3--3--3--3-3-3-3|-3--3--3-3-3--3--3--3--3-3-----|
E|-------------------------------|-1--1--1-1-1--1--1--1--1-1-----|

  about anything, everything and what's on tv

repeat intro X2

verse:
e|---------------------------|---------------------------|
B|---------------------------|---------------------------|
G|-3--3--3-3-3--3--3--3-3-3--|---------------------------|
D|-3--3--3-3-3--3--3--3-3-3--|-5--5--5-5-5--5--5--5-5-5--|
A|-1--1--1-1-1--1--1--1-1-1--|-5--5--5-5-5--5--5--5-5-5--|
E|---------------------------|-3--3--3-3-3--3--3--3-3-3--|

        it's a vicious circle        never ending

e|---------------------------|---------------------------|
B|---------------------------|---------------------------|
G|-5--5--5-5-5--5--5--5-5-5--|---------------------------|
D|-5--5--5-5-5--5--5--5-5-5--|-3--3--3-3-3--3--3--3-3-3--|
A|-3--3--3-3-3--3--3--3-3-3--|-3--3--3-3-3--3--3--3-3-3--|
E|---------------------------|-1--1--1-1-1--1--1--1-1-1--|

         a linear equation           worldy extending

e|---------------------------|---------------------------|
B|---------------------------|---------------------------|
G|-3--3--3-3-3--3--3--3-3-3--|---------------------------|
D|-3--3--3-3-3--3--3--3-3-3--|-5--5--5-5-5--5--5--5-5-5--|
A|-1--1--1-1-1--1--1--1-1-1--|-5--5--5-5-5--5--5--5-5-5--|
E|---------------------------|-3--3--3-3-3--3--3--3-3-3--|

  no i'll never be like you    i'll never ever be like you

e|---------------------------|---------------------------|
B|---------------------------|---------------------------|
G|-5--5--5-5-5--5--5--5-5-5--|---------------------------|
D|-5--5--5-5-5--5--5--5-5-5--|-3--3--3-3-3--3--3--3-3-3--|
A|-3--3--3-3-3--3--3--3-3-3--|-3--3--3-3-3--3--3--3-3-3--|
E|---------------------------|-1--1--1-1-1--1--1--1-1-1--|

  oh no!                                   i'm just like 

e|------------|  
B|------------|
G|-3-(3)------|
D|-3-(3)------|
A|-1-(1)------|
E|------------|

   you!                 =

TEENAGE POLITICS - MXPX

By:clem
A=
e|---------------------------------------------------------------------------|
B|---------------------------------------------------------------------------|
G|---------7-6--4-6-----7-6-4-6-4--7-6-4-6----7-6-7-9------------------------|
D|----7-7--7-6--4-6--4--7-6-4-6-4--7-6-4-6-2--7-6-7-9------------------------|x2
A|----7-7--5-4--2-4--4--5-4-2-4-2--5-4-2-4-2--5-4-5-7------------------------|
E|----5-5------------2---------------------0---------------------------------|

 B=                            C=
e|----------------------|   |------------------------| 
B|----------------------|   |------PMx3---------PMx4-|
G|------------4---------|   |--7-7--7---7-7-7-7--7---|
D|----7---4---4---2-----|x2 |--7-7--7---7-7-7-7--7---|x2
A|----7---4---2---2-----|   |--5-5--5---5-5-5-5--5---|
E|----5---2-------0-----|   |------------------------|
Suggest correction new What's this?
You can suggest a correction to this tab. Community and Mods will review your correction and vote to approve or reject it.
comments
We did not receive enough feedback on this tab! Please rate:
print report bad tab
1 2 3 4 5
guest
You may want to rate the tab now too:
select rating
Please do not post tabs as comments. Select "correction" instead!