Oops, an error
Loading. Please wait.

The Broken Bones Tab

by MxPx
3,001 views 1 this week
no commentswrite comment
1 2 3 4 5
3 more votes to show rating
add to favorites
launch autoscroll
font size
0
reset
how to read this tab
guitar tuner
Autoscroll
slow
fast
+/-
esc
set tempo
stop
Help us to improve Ultimate-Guitar.com Take our survey!
×
Author
THE BROKEN BONES-MXPX

w=whole note
h=half note
q=quarter note
e=eight note
16=sixteenth note

Intro
                                                               X2
e|---------------------------------------------------------------------------|
B|---2--3--2-------2--3--2-------2--5--2-------2--5--2-----------------------|
G|-2----------2-2-----------2-2-----------2-2-----------2--------------------|
D|---------------------------------------------------------------------------|
A|---------------------------------------------------------------------------|
E|---------------------------------------------------------------------------|
   e q  q  q  e e  q  q  q  e e  q  q  q  e e  q  q  q  e

VERSE
this is also the part that the second guitar plays during the intro
e|---------------------------------------------------------------------------|
B|---------------------------------------------------------------------------|
G|---------------------------------------------------------------------------|
D|-7-7--7-7-7--7-7-7--7-7-7--7-4-4--4-4-4--4-4-4--4-4-4--4-------------------|
A|-7-7--7-7-7--7-7-7--7-7-7--7-4-4--4-4-4--4-4-4--4-4-4--4-------------------|
E|-5-5--5-5-5--5-5-5--5-5-5--5-2-2--2-2-2--2-2-2--2-2-2--2-------------------|
   e q  e e q  e e q  e e q  e e q  e e q  e e q  e e q  e
                                                           X2
e|---------------------------------------------------------------------------|
B|---------------------------------------------------------------------------|
G|-4-4--4-4-4--4-4-4--4-4-4--4-7-7--7-7-7--7-9-9--9-9-9--9-------------------|
D|-4-4--4-4-4--4-4-4--4-4-4--4-7-7--7-7-7--7-9-9--9-9-9--9-------------------|
A|-2-2--2-2-2--2-2-2--2-2-2--2-5-5--5-5-5--5-7-7--7-7-7--7-------------------|
E|---------------------------------------------------------------------------|
   e q  e e q  e e q  e e q  e e q  e e q  e e q  e e q  e

e|---------------------------------------------------------------------------|
B|---------------------------------------------------------------------------|
G|--9-9-9-9-9-9-9-9-9--------------------------------------------------------|
D|--9-9-9-9-9-9-9-9-9--------------------------------------------------------|
A|--7-7-7-7-7-7-7-7-7--------------------------------------------------------|
E|---------------------------------------------------------------------------|  e e e e 
e e e e rest
                                                            X2
e|---------------------------------------------------------------------------|
B|---------------------------------------------------------------------------|
G|----------------7--7--7-7-7-7-9--9--9-9-9-9-7--7--7-7-7-7------------------|
D|--7--7--7-7-7-7-7--7--7-7-7-7-9--9--9-9-9-9-7--7--7-7-7-7------------------|
A|--7--7--7-7-7-7-5--5--5-5-5-5-7--7--7-7-7-7-5--5--5-5-5-5------------------|
E|--5--5--5-5-5-5------------------------------------------------------------|
    q  q  e e e e q  q  e e e e q  q  e e e e q  q  e e e e

  Outro riff
                                  X4                                 X4
e|---------------------------------------------------------------------------|
B|-3-3-3-2-2-2-3-3-3-2-2-2-3-3-2-2--------2--3--2-------2--3--2--------------|
G|-2-2-2-2-2-2-2-2-2-2-2-2-2-2-2-2-----2-----------2-2-----------2-----------|
D|---------------------------------------------------------------------------|
A|---------------------------------------------------------------------------|
E|---------------------------------------------------------------------------|
   e e e e e e e e e e e e e e e e     e q  q  q  e e  q  q  q  e

Song Order
Intro
Verse 1
Chorus
Pre-verse (same as intro)
Verse 2, it's almost the same as the first verse except on the first two measures you 
the A5 chord for two measures instead of playing it like you normally would
Chorus 2
Then you don't play anything for 8 measures, but then you repeat the chorus agian
Outro(with the riff I tabbed above and a second guitar playing the verse part)
End on A5
Suggest correction
Give kudos to tab author, rate the tab!
1 2 3 4 5
comments
print report bad tab
guest
You may want to rate the tab now too:
select rating
Wanna post a correction for this tab? Suggest correction