Oops, an error
Loading. Please wait.

The Next Big Thing Tab

version 2
version 2

Whole song

Interactive

by MxPx
122 views 1 this week
1 commentread comment
1 2 3 4 5
1 last vote to show rating
add to favorites
launch autoscroll
font size
0
reset
how to read this tab
guitar tuner
Autoscroll
slow
fast
+/-
esc
set tempo
stop
Help us to improve Ultimate-Guitar.com Take our survey!
×
Not too sure that it's PERFECT but I gave it a shot.

Intro
e|--------------|    |----------------|
B|--------------|    |----------------|
G|---2-2-4-4-9-9|    |-44444444444444-|
D|-2-2-2-4-4-9-9| 3x |-44444444444444-|
A|-2-0 0-2-2-7-7|    |-22222222222222-|
E|-0------------|    |----------------|

To enter the verse play ^^^^^^^^^^^

Verse
e|-------------------------------------------------------|
B|-------------------------------------------------------|
G|--------222222-444444444444--------222222-444444444444-|
D|-222222-222222-444444444444-222222-222222-444444444444-|
A|-222222-000000-222222222222-222222-000000-222222222222-|
E|-000000---------------------000000---------------------|

Pre Chorus
e|------------------------------------------------------|
B|------------------------------------------------------|
G|-2-2-2-2-2-2-2-2-----------6-6-6-6-7-7-7-7-4444444444-|
D|-2-2-2-2-2-2-2-2-222222222-6-6-6-6-7-7-7-7-4444444444-|
A|-0-0-0-0-0-0-0-0-222222222-4-4-4-4-5-5-5-5-2222222222-|
E|-----------------000000000----------------------------|

Chorus
e|--------------|    |----------------|
B|--------------|    |----------------|
G|---2-2-4-4-9-9|    |-44444444444444-|
D|-2-2-2-4-4-9-9| 3x |-44444444444444-|
A|-2-0-0-2-2-7-7|    |-22222222222222-|
E|-0------------|    |----------------|

Verse (same as the first)
Pre Chorus
Chorus

Bridge - second guitar plays chorus
While first guitar...
e|----------------------------------------------|
B|----------------------------------------------|
G|-99998866444466-99998866444668-99998866444466-|
D|----------------------------------------------|
A|----------------------------------------------|
E|----------------------------------------------|

Right after play...
e|-----------------|
B|-----------------|
G|-9-4-8-11-6-8-9--|
D|-----------------|
A|-----------------|
E|-----------------|

Then...

e|-------------------------|    |----------------|
B|-------------------------|    |----------------|
G|---9-----9-----9---8---8-|    |---9-----9------|
D|-7---7-6---6-9---9---9---| 3x |-7---7-6---6-9~-|
A|-------------------------|    |----------------|
E|-------------------------|    |----------------|

Chorus 2x (first guitar does it's solo thing)

Outro (first guitar still does it's solo..)
e|---------------|  |------------------|
B|---------------|  |------------------|
G|---2-2-4-4-9-9-|  |-666666-222222----|
D|-2-2-2-4-4-9-9-|3x|-666666-222222-2~-|  (repeat whole thing twice)
A|-2-0-0-2-2-7-7-|  |-444444-000000-2~-|
E|-0-------------|  |------------------|
'
Suggest correction
Give kudos to tab author, rate the tab!
1 2 3 4 5
comments
print report bad tab
1 comment total.
0 reply
catalyst81 30 May 18, 2005 12:00 AM

Bridge right after play...easier to play it like this

E-------------------
B-------------------
G--9---8-11----8-9--
D----9------11------
A-------------------
E-------------------

guest
You may want to rate the tab now too:
select rating
Wanna post a correction for this tab? Suggest correction