Oops, an error
Loading. Please wait.

Tomorrows Another Day Tab

version 2
version 2

Whole song

by MxPx
738 views 6 this week
3 commentsread comments
1 2 3 4 5
please rate
add to favorites
launch autoscroll
font size
0
reset
how to read this tab
guitar tuner
Tab Pro tools
  • play this tab
  • loop segment
  • change instrument
  • show fretboard
  • metronome
×
Best way to learn
"Tomorrows Another Day"
Autoscroll
slow
fast
+/-
esc
set tempo
stop
Contributor
Difficulty
novice
"Tomorrow's Another Day" by MxPx
Tabbed by Dave

Tuning: Standard

Intro
|------------------|
|------------------|
|------------------|
|-4444444444444444-|
|-4444444444444444-|
|-2222222222222222-|
  ********* * * *    Gradually release the PM
Verse 1
|----------------------------------->
|----------------------------------->
|-4-4-4-4-4-4-4-4-4----------------->
|-4-4-4-4-4-4-4-4-4-4-4-4-4-4-4-4-4->
|-2-2-2-2-2-2-2-2-2-4-4-4-4-4-4-4-4->
|-------------------2-2-2-2-2-2-2-2->
    * * * * * * * * * * * * * * * *

|---------------------------------|
|---------------------------------|
|-6-6-6-6-6-6-6-6-----------------|
|-6-6-6-6-6-6-6-6-2-2-2-2-2-2-2-2-|
|-4-4-4-4-4-4-4-4-2-2-2-2-2-2-2-2-|  x2, but pn the second time, only
|-----------------0-0-0-0-0-0-0-0-|      hit the last chord once and 
  * * * * * * * * * * * * * * * *        let it ring
Verse 2
|-------------------------------------|
|-------------------------------------|
|-44444444----------66666666----------|
|-44444444-44444444-66666666-22222222-|
|-22222222-44444444-44444444-22222222-|  x4
|----------22222222----------00000000-|

Chorus
|--------------------------|
|--------------------------|
|-44-----------------------|
|-44--44--2222222222222222-|
|-22--44--2222222222222222-|  x2, on the second time hit last chord 32 
|-----22--0000000000000000-|      times instead of only 16 times.

After the first chorus
|----------------------|
|----------------------|
|-8-6-4-3--9-8-6-9-8-6-|
|-x-x-x-x--x-x-x-x-x-x-|
|-6-4-2-1--7-6-4-7-6-4-|  x2
|----------------------|


|-------------------------|
|-------------------------|
|-4---6-------------------|
|-4-4-6-22222222222222222-|
|-2-4-4-22222222222222222-|
|---2---00000000000000000-|
        *************

Verse 1 x4


Chorus x2

Bridge/Outro/thing
|----------->
|----------->
|-4---6----->
|-4-4-6-2-4->
|-2-4-4-2-4->
|---2---0-2->


|--------------------------------------|
|--------------------------------------|
|-44444444----------66666666-----------|
|-44444444-44444444-66666666-2222-4444-|
|-22222222-44444444-44444444-2222-4444-|  x2
|----------22222222----------0000-2222-|

Clean
|----------------|
|----------------|
|-4~----6~-------|
|-4~-4~-6~-2~-4~-|
|-2~-4~-4~-2~-4~-|  x2
|----2~----0~-2~-|


|------------------------------|
|------------------------------|
|-8888-4-8888-4-8888-9-8-6-4-6-|
|-xxxx-x-xxxx-x-xxxx-x-x-x-x-x-|
|-6666-2-6666-2-6666-7-6-4-2-4-|  x2
|------------------------------|

|-------------------------------|
|-------------------------------|
|-11------------------9-8-6-4-6-|
|--x-(a lot of times)-x-x-x-x-x-|
|--9------------------7-6-4-2-4-|  x2
|-------------------------------|

|------|
|------|
|-4~4x-|
|-4~4x-|
|-2~2x-|
|------|
comments
We did not receive enough feedback on this tab! Please rate:
print report bad tab
1 2 3 4 5
3 comments total.
-1 reply
PhantomWuss95 wrote on September 25 2006, 09:44 pm

one of my tabs finally got accepted



YES!

-2 reply
MFZBen wrote on January 23 2007, 12:31 pm

shame it isnt very good

-1 reply
PhantomWuss95 wrote on February 20 2007, 04:28 pm

Why? What do you find wrong with it?

I want to post or [tab]
guest
You may want to rate the tab now too:
select rating
Please do not post tabs as comments. Select "correction" instead!