Oops, an error
Loading. Please wait.

Top Of The Charts Bass Tab

by MxPx
637 views 1 this week
no commentswrite comment
1 2 3 4 5
please rate
add to favorites
launch autoscroll
font size
0
reset
guitar tuner
Autoscroll
slow
fast
+/-
esc
set tempo
stop
Help us to improve Ultimate-Guitar.com Take our survey!
×
Author
kstar19 361
----------------------------------------
TOP OF THE CHARTS – MXPX – SECRET WEAPON
----------------------------------------

Tabbed By: kstar19
Tuning: normal
> : play lots of times
(): muted
/ : slide

INTRO
No bass till 0:34
G|--------------------|
D|--------------------|
A|---33----33----33---|
E|33----33----33----3-|

VERSE
G|--------------------------------------------------------------|
D|---------------------------5--5-----7--7---------------575----|
A|---33----33----33----33-777-77-7-555-55-5-3333-5555-777---5/3-|
E|33----33----33----33------------------------------------------|

CHORUS
G|----------------------------------------------|
D|------------------------------4--4------------|
A|------3>-------3>-------3>-555-55-5-33333-202-|
E|3>-5>----3>-5>----3>-5>-----------------------| 

G|---------------------------------------------------|
D|------------------------------4--4-----------------|
A|------3>-------3>-------3>-555-55-5-33333-202----3-|
E|3>-5>----3>-5>----3>-5>-----------------------5>---| 

Bridge
G|---------------------------------------------------------------------|
D|-----------------------------------------------------4--4------------|
A|-------------(3)>------(3)>------(3)>----2-23-34-4555-55-5-33333-202-|
E|(3)>----(3)>------(5)>------(3)>------5-5----------------------------|

CHORUS
G|----------------------------------------------|
D|------------------------------4--4------------|
A|------3>-------3>-------3>-555-55-5-33333-202-|
E|3>-5>----3>-5>----3>-5>-----------------------| 

G|----------------------------------------------|
D|------------------------------4--4------------|
A|------3>-------3>-------3>-555-55-5-33333-202-|
E|3>-5>----3>-5>----3>-5>-----------------------|

OUTRO
G|-----------------------|
D|-----------------------|
A|---3>-5>----3>-5>----3-|
E|5>-------5>-------5>---|
Suggest correction new What's this?
You can suggest a correction to this tab. Community and Mods will review your correction and vote to approve or reject it.
comments
We did not receive enough feedback on this tab! Please rate:
print report bad tab
1 2 3 4 5
guest
You may want to rate the tab now too:
select rating
Please do not post tabs as comments. Select "correction" instead!