Oops, an error
Loading. Please wait.

Two Whole Years Tab

by MxPx
395 views 1 this week
no commentswrite comment
1 2 3 4 5
excellent!
x 1
add to favorites
launch autoscroll
font size
0
reset
how to read this tab
guitar tuner
Tab Pro tools
  • play this tab
  • loop segment
  • change instrument
  • show fretboard
  • metronome
Autoscroll
slow
fast
+/-
esc
set tempo
stop
MxPx - Two Whole Years

I have only found chords for this song so I thought I should do a tab for it

> - Let Ring
. - Palm Mute

Verse1
e|-------------------------------------------------------|
b|-------------------------------------------------------|
g|-------------------------------------------------------|
d|--6-6-7-7---7777777777777777777777---------------------|
a|--6-6-7-7---7777777777777777777777---------------------|
E|--4-4-5-5---5555555555555555555555---------------------|
              ......................

e|-------------------------------------------------------|
b|-------------------------------------------------------|
g|--7-7-7-7-7-----------------7-7-7-7-7------------------|
d|--7-7-7-7-7--2-2-2-2-2------7-7-7-7-7--2-2-2-2-2-------|
a|--5-5-5-5-5--2-2-2-2-2------5-5-5-5-5--2-2-2-2-2-------|
E|-------------0-0-0-0-0-----------------0-0-0-0-0-------|

Pre-Chorus
e|-------------------------------------------------------|
b|-------------------------------------------------------|
g|--------------------7-7-7-7-7-7-7-7-7-7-7--------------|
d|--4-4-4-4--5-5-5-5--7-7-7-7-7-7-7-7-7-7-7--------------|
a|--4-4-4-4--5-5-5-5--5-5-5-5-5-5-5-5-5-5-5--------------|
E|--2-2-2-2--3-3-3-3-------------------------------------|

Chorus
e|-------------------------------------------------------|
b|-------------------------------------------------------|
g|-------------9-9-9-9-9--7-7-7-7-7-7-7-7-7-7------------|
d|--7-7-7-7-7--9-9-9-9-9--7-7-7-7-7-7-7-7-7-7------------|
a|--7-7-7-7-7--7-7-7-7-7--5-5-5-5-5-5-5-5-5-5------------|
E|--5-5-5-5-5--------------------------------------------|

Verse2
e|---------------------------------------------------------|
b|---------------------------------------------------------|
g|-------------7-7-7-7-7-------------7-7-7-7-7-------------|
d|--6-6-7-7----7-7-7-7-7--2-2-2-2-2--7-7-7-7-7--2-2-2-2-2--|
a|--6-6-7-7----5-5-5-5-5--2-2-2-2-2--5-5-5-5-5--2-2-2-2-2--|
E|--4-4-5-5---------------0-0-0-0-0-------------0-0-0-0-0--|

e|------------------------------------------------------------------|
b|------------------------------------------------------------------|
g|----------------------7-7-7-7-7-------------7-7-7-7-7-------------|
d|--6-6-7-7>--7--pick---7-7-7-7-7--2-2-2-2-2--7-7-7-7-7--2-2-2-2-2--|
a|--6-6-7-7>--7--slide--5-5-5-5-5--2-2-2-2-2--5-5-5-5-5--2-2-2-2-2--|
E|--4-4-5-5>--5--------------------0-0-0-0-0-------------0-0-0-0-0--|

Bridge
e|-------------------------------------------------------------------------|
b|-------------------------------------------------------------------------|
g|-4-4-4-4-4-4-4-2-2-2-2-2-2-------------------------------7-7-7-7-7--7-7--|
d|-4-4-4-4-4-4-4-2-2-2-2-2-2-2-2-2-2-2-4-4-4-4-4-5-5-5-5-5-7-7-7-7-7--7-7--|
a|-2-2-2-2-2-2-2-0-0-0-0-0-0-2-2-2-2-2-4-4-4-4-4-5-5-5-5-5-5-5-5-5-5--5-5--|
E|---------------------------0-0-0-0-0-2-2-2-2-2-3-3-3-3-3-----------------|

e|--------------------------------------------------------------------|
b|--------------------------------------------------------------------|
g|-4-4-4-4-4-4-4-2-2-2-2-2-2-------------------------------7-7-7-7-7--|
d|-4-4-4-4-4-4-4-2-2-2-2-2-2-2-2-2-2-2-4-4-4-4-4-5-5-5-5-5-7-7-7-7-7--|
a|-2-2-2-2-2-2-2-0-0-0-0-0-0-2-2-2-2-2-4-4-4-4-4-5-5-5-5-5-5-5-5-5-5--|
E|---------------------------0-0-0-0-0-2-2-2-2-2-3-3-3-3-3------------|

e|--------------------------------------------------------|
b|--------------------------------------------------------|
g|---------------------9-9-9-9-9-7-7-7-7-7-9--------------|
d|-4-4-4-4-4-5-5-5-5-5-9-9-9-9-9-7-7-7-7-7-9--------------|
a|-4-4-4-4-4-5-5-5-5-5-7-7-7-7-7-5-5-5-5-5-7--------------|
E|-2-2-2-2-2-3-3-3-3-3------------------------------------|

Outro
e|------------------------------------------------|
b|------------------------------------------------|
g|--7>-----9>-------------------------------------|
d|--7>-----9>----7-7-7-7-7-7-7-7-7----7>----------|
a|--5>-----7>----7-7-7-7-7-7-7-7-7----7>----------|
E|---------------5-5-5-5-5-5-5-5-5----5>----------|

Order:
Verse1 x2
Pre-Chorus x2
Chorus x2
Verse2 x1
Pre-Chorus x2
Chorus x2
Bridge x1
Chorus x4
Outro x1
comments
We did not receive enough feedback on this tab! Please rate:
print report bad tab
1 2 3 4 5
I want to post or [tab]
guest
You may want to rate the tab now too:
select rating
Please do not post tabs as comments. Select "correction" instead!