Oops, an error
Loading. Please wait.

Well Adjusted Bass Tab

by MxPx
410 views 3 this week
no commentswrite comment
1 2 3 4 5
excellent!
x 1
add to favorites
launch autoscroll
font size
0
reset
guitar tuner
Tab Pro tools
  • play this tab
  • loop segment
  • change instrument
  • show fretboard
  • metronome
Autoscroll
slow
fast
+/-
esc
set tempo
stop
Contributor
-----------------------------------------------------------------------------
			     Well Adjusted - Mxpx
-----------------------------------------------------------------------------

Artist: Mxpx
Song: Well Adjusted
Albulm: Everything Before And After
Tabbed By : Zero is Great man
e-mail: benzero@verizon.net
Tuning: EADG

Intro/Outro:
G|--------------------------------------------------------------------------|
D|--------------------------------------------------------------------------|
A|-----------------------6-6-x-x-x-6-6----------------------------------1---|
E|-3-3-x-x-x--6-6-x-x-x-----------------3-3-x-x-x--6-6-x-x-x--1-1-1-1-1---1-|

Verse: 
"Am I the one that's going crazy..."|"One little minute seems to last a life"
G|--------------------------------------------------------------------------|
D|--------------------------------------------------------------------------|
A|------------------6-6-6-6-6-6-6-6-----------------------------------------|
E|-3-3-3-3-/6-6-6-6------------------3-3-3-3/6-6-6-6--1-1-1-1-1-1-1-1-1-----|

Pre-Chorus:
"I need a room in a mental penitentory, so lock me up with maximum..."
G|--------------------------------------------------------------------------|
D|--------------------------------------------------------------------------|
A|----------------------------6-6-6-6---------------------------------------|
E|-6-6-6-6--5-5-5-5--3-3-3-3------------------------------------------------|

Fill 1: "Yeah, yeah, yeah, yeah."
G|--------------------------------------------------------------------------|
D|--------------------------------------------------------------------------|
A|--------------------------------------------------------------------------|
E|-2-2-2-2--1-1-1-1-1-1-1-1-------------------------------------------------|

Chorus: 
"The doctors say that I'll be getting out real soon, the doctors say that I"
G|--------------------------------------------------------------------------|
D|--------------------------------------------------------------------------|
A|-------------------6-6-6-6--8-8-8-8---------------------------------------|
E|-6-6-6-6--8-8-8-8---------------------------------------------------------|

Fill 2:
"Yeh yeh yeh yeh yeh...."
G|--------------------------------------------------------------------------|
D|--------------------------------------------------------------------------|
A|----------------------------6-6-6-6---------------------------------------|
E|-2-2-2-2-2-2-2-2--/6-6-6-6------------------------------------------------|

Bridge:
"I'm sorry baby, I'm not crazy, pardon me bebe, Yo no soy loco..."
G|--------------------------------------------------------------------------|
D|--------------------------------------------------------------------------|
A|-------------------------------------------6-6-6-6-6-6-6-6----------------|
E|-3-3-3-3-3-3-3-3-3-3-3-3--6-6-6-6-6-6-6-6---------------------------------|

Bridge Part 2:
"Whoa....Wh---ooo---ooo-oa...."
G|-------------------------------------------8-8-8-8-8-8-8-8----------------|
D|-5-5-5-5-5-5-5-5-5-5-5-5--8-8-8-8-8-8-8-8---------------------------------|
A|--------------------------------------------------------------------------|
E|--------------------------------------------------------------------------|

Finale
G|--------------------------------------------------------------------------|
D|--------------------------------------------------------------------------|
A|--------------------------------------------------------------------------|
E|-3-3~---------------------------------------------------------------------|


| /  slide up
| \  slide down
| h  hammer-on
| p  pull-off
| ~  vibrato
| +  harmonic
| x  Mute note
=============================================================================
comments
We did not receive enough feedback on this tab! Please rate:
print report bad tab
1 2 3 4 5
I want to post or [tab]
guest
You may want to rate the tab now too:
select rating
Please do not post tabs as comments. Select "correction" instead!