Oops, an error
Loading. Please wait.

You Found Me Tab

by MxPx
1,516 views 1 this week
no commentswrite comment
1 2 3 4 5
please rate
add to favorites
launch autoscroll
font size
0
reset
how to read this tab
guitar tuner
Autoscroll
slow
fast
+/-
esc
set tempo
stop
Help us to improve Ultimate-Guitar.com Take our survey!
×
You Found Me
MxPx

Tabbed by Caleb    --->ultimate_guitarist1986@hotmail.com<---

Been a long time since i tabbed anything...hope ive still got it. Let me know if i dont.
The song basically follows the same progression.

Standard Tuning

* Palm Mute

Intro
e--------------------------------------------------------------------
B--------------------------------------------------------------------
G-4--4-4-4-4-4-4---7--7-7-7-7-7-7------------------------------------
D-4--4-4-4-4-4-4---7--7-7-7-7-7-7---7--7-7-7-7-7-7---5--5-5--7--7-7--
A-2--2-2-2-2-2-2---5--5-5-5-5-5-5---7--7-7-7-7-7-7---5--5-5--7--7-7--
E-----------------------------------5--5-5-5-5-5-5---3--3-3--5--5-5--

Verse
/
|e--------------------------------------------------------------------
|B--------------------------------------------------------------------
|G-4--4-4-4-4-4-4---7--7-7-7-7-7-7------------------------------------
|D-4--4-4-4-4-4-4---7--7-7-7-7-7-7---7--7-7-7-7-7-7---5--5-5--7--7-7--
|A-2--2-2-2-2-2-2---5--5-5-5-5-5-5---7--7-7-7-7-7-7---5--5-5--7--7-7--  X2
|E-----------------------------------5--5-5-5-5-5-5---3--3-3--5--5-5--
|     * * * * *        * * * * *        * * * * *        * *     * *  
|
|e--------------------------------------------------------------------
|B--------------------------------------------------------------------
|G-4--4-4-4-4-4-4---7--7-7-7-7-7-7------------------------------------
|D-4--4-4-4-4-4-4---7--7-7-7-7-7-7---7--7-7-7-7-7-7---5--5-5--7--7-7--
|A-2--2-2-2-2-2-2---5--5-5-5-5-5-5---7--7-7-7-7-7-7---5--5-5--7--7-7--  X2
|E-----------------------------------5--5-5-5-5-5-5---3--3-3--5--5-5--  
\

Now for the chorus... use the same riff! Pretty hard to remember, huh?
Just dont use palm mutes, do the second half of the verse twice.
Chorus
e--------------------------------------------------------------------
B--------------------------------------------------------------------
G-4--4-4-4-4-4-4---7--7-7-7-7-7-7------------------------------------
D-4--4-4-4-4-4-4---7--7-7-7-7-7-7---7--7-7-7-7-7-7---5--5-5--7--7-7--
A-2--2-2-2-2-2-2---5--5-5-5-5-5-5---7--7-7-7-7-7-7---5--5-5--7--7-7--
E-----------------------------------5--5-5-5-5-5-5---3--3-3--5--5-5--

Solo
/
|e----------------------------------------------------------
|B--8--7-------------------------8--7-----------------------
|G-------9--7---7--9-7-6--7-6---------9--7---7--9-7-6--7-6--
|D----------------------------------------------------------
|A----------------------------------------------------------
|E----------------------------------------------------------
|
|e--------------------------------------------------------------------
|B--------------------------------------------------------------------
|G-4--4-4-4-4-4-4---7--7-7-7-7-7-7------------------------------------
|D-4--4-4-4-4-4-4---7--7-7-7-7-7-7---7--7-7-7-7-7-7---5--5-5--7--7-7--
|A-2--2-2-2-2-2-2---5--5-5-5-5-5-5---7--7-7-7-7-7-7---5--5-5--7--7-7--  X2
|E-----------------------------------5--5-5-5-5-5-5---3--3-3--5--5-5--
\

3rd Verse
/  Clean\/
|e-----------------------------------------------------
|B-----------------------------------------------------
|G-19-19-x-19---19-19-x-19---19-19-x-19---19-19-x-19---
|D-x--x--x-x----x--x--x-x----x--x--x-x----x--x--x-x----
|A-17-17-x-17---17-17-x-17---17-17-x-17---17-17-x-17---
|E-----------------------------------------
|Back to Distortion \/
|e--------------------------------------------------------------------
|B--------------------------------------------------------------------
|G-4--4-4-4-4-4-4---7--7-7-7-7-7-7------------------------------------
|D-4--4-4-4-4-4-4---7--7-7-7-7-7-7---7--7-7-7-7-7-7---5--5-5--7--7-7--
|A-2--2-2-2-2-2-2---5--5-5-5-5-5-5---7--7-7-7-7-7-7---5--5-5--7--7-7--  X3
|E-----------------------------------5--5-5-5-5-5-5---3--3-3--5--5-5--  
\

Last Chorus
e-------------------------------------------------------------------------
B-------------------------------------------------------------------------
G-4-4-4-4-4-4-4-4---7-7-7-7-7-7-7-7---------------------------------------
D-4-4-4-4-4-4-4-4---7-7-7-7-7-7-7-7---7-7-7-7-7-7-7-7---5-5-5-5--7-7-7-7--
A-2-2-2-2-2-2-2-2---5-5-5-5-5-5-5-5---7-7-7-7-7-7-7-7---5-5-5-5--7-7-7-7--  x2
E-------------------------------------5-5-5-5-5-5-5-5---3-3-3-3--5-5-5-5--


*Order* really very simple song
 Intro  x2
 Verse 
 Chorus x2
 Intro  x2
 Verse
 Chorus x2
 Solo   x1
 3rd Verse
 Chorus x4
 Last Chorus
Suggest correction
Give kudos to tab author, rate the tab!
1 2 3 4 5
comments
print report bad tab
guest
You may want to rate the tab now too:
select rating
Please do not post tabs as comments. Select "correction" instead!