Oops, an error
Loading. Please wait.

You Hold The Key Bass Tab

by MxPx
50 views 1 this week
no commentswrite comment
1 2 3 4 5
3 more votes to show rating
add to favorites
launch autoscroll
font size
0
reset
guitar tuner
Autoscroll
slow
fast
+/-
esc
set tempo
stop
Help us to improve Ultimate-Guitar.com Take our survey!
×
Author
Difficulty
novice
You Hold The Key
By: MxPx
From The Album: Fat Records Wrecktrospective
Tabbed By JVon76

Only 3 Parts to this song.  Just listen to the song to see where each part goes it's very simple.

Intro/Verse:
G--------|
D--------|
A-----2--|
E--2>----|

Variation: "If there's one thing that I hate..." Play 4x.
G-----------|
D-----------|
A-----2>----|
E--4>----2--|

Intro/Verse: Different Pattern
Play Intro/Verse Normally
Variation 4x.
Guitar Solo Play Intro/Verse

After Guitar Solo Play 2x.
G-----------|
D-----------|
A--5>-2>----|
E--------2--|

Play Intro/Verse
Variation
Ending:
G------------------------------------------|
D------------------------------------------|
A--5-5-5-5-5-5-5-5--2-2-2-2-2-2-2-2--------|
E-----------------------------------2------|(Ring)
Suggest correction
Give kudos to tab author, rate the tab!
1 2 3 4 5
comments
print report bad tab
guest
You may want to rate the tab now too:
select rating
Wanna post a correction for this tab? Suggest correction