Oops, an error
Loading. Please wait.

You Make Me Me Tab

version 1
version 1

Whole song

Interactive

by MxPx
1,928 views 1 this week
no commentswrite comment
1 2 3 4 5
please rate
add to favorites
launch autoscroll
font size
0
reset
how to read this tab
guitar tuner
Autoscroll
slow
fast
+/-
esc
set tempo
stop
Help us to improve Ultimate-Guitar.com Take our survey!
×
Contributor
Difficulty
AFILEX 1,090
intermediate
Artist: MXPX
Song: You Make Me, Me
Album: Before Everything & After
Tabbed By: Alex Trimboli


/ = Slide Up
. = Palm Mute
x = Dead Note (Mute String)


Standard Tuning (EADGBE)


Intro

E---------------------------------------------------|
B---------------------------------------------------|
G-7----/11-11-11-13-13-13--x7----/11-11-11-13-13-13-|   
D-7----/x--x--x--x--x--x---x7----/x--x--x--x--x--x--|
A-5----/9--9--9--11-11-11--x5----/9--9--9--11-11-11-|
E---------------------------------------------------|

E-------------------------------------|                         |-----|
B-------------------------------------|    x2     Second time   |-----|
G-x12----/11-11-11-9-9-9--x7-7/11-9-6-|           end on:       |--9--|
D-x12----/x--x--x--x-x-x--x7-x/x--x-x-|                         |--9--|
A-x10----/9--9--9--7-7-7--x5-5/9--7-4-|                         |--7--| 
E-------------------------------------|                         |-----|
                                              
E-----------|
B-----------|
G-----------|
D-7-9-10-11-|   
A-7-9-10-11-|
E-5-7-8--9--|


Verse 1

E-------------------------------------------------|   x2
B-------------------------------------------------|
G-7-7-7-7-7-7-7-7-4-4-4-4-4-4-4-4-6-/7-/9-/11-/12-|   
D-7-7-7-7-7-7-7-7-4-4-4-4-4-4-4-4-x-/x-/x-/x--/x--|
A-5-5-5-5-5-5-5-5-2-2-2-2-2-2-2-2-4-/5-/7-/9--/10-|
E-------------------------------------------------|

  . . . . . . . . . . . . . . . . . . . . . . . . . . . . . . . . .
E-------------------------------------------------------------------|
B-------------------------------------------------------------------|
G-------------------------------------------------------------------|   
D-4-4-4-4-4-4-4-4-4-9-9-9-9-7-7-7-7-5-5-5-5-5-5-5-5-5-5-5-5-5-5-5-5-|
A-4-4-4-4-4-4-4-4-4-9-9-9-9-7-7-7-7-5-5-5-5-5-5-5-5-5-5-5-5-5-5-5-5-|
E-2-2-2-2-2-2-2-2-2-7-7-7-7-5-5-5-5-3-3-3-3-3-3-3-3-3-3-3-3-3-3-3-3-|
   . . . . . . . . . . . . . . . . . . . . . . . . . . . . . . . . .

  . . . . . . . . . . . . . . . . . . . . . . . . . 
E-------------------------------------------------------------------|
B-------------------------------------------------------------------|
G-------------------------------------------------------------------|   
D-4-4-4-4-4-4-4-4-4-9-9-9-9-9-9-9-7-5-5-5-5-5-5-5-5-7-7-7-7-7-7-7-7-|
A-4-4-4-4-4-4-4-4-4-9-9-9-9-9-9-9-7-5-5-5-5-5-5-5-5-7-7-7-7-7-7-7-7-|
E-2-2-2-2-2-2-2-2-2-7-7-7-7-7-7-7-5-3-3-3-3-3-3-3-3-5-5-5-5-5-5-5-5-|
  . . . . . . . . . . . . . . . . . . . . . . . . . 


Chorus

E------------------------------------------------------|  
B------------------------------------------------------|
G-7----/11-/14--7----/11-/14--12----/11-/9--7-7/11-9-6-|   
D-7----/x--/x---7-----x---x---12----/x--/x--7-x-x--x-x-|
A-5----/9--/12--5----/9--/12--10----/9--/7--5-5-9--7-4-|
E------------------------------------------------------|


Post Chorus 1

E-------------------|
B-------------------|
G-------------------|
D-7--x7---7-9-10-11-|   
A-7--x7---7-9-10-11-|
E-5--x5---5-7-8--9--|


Post Chorus 2

E---------------------------|
B---------------------------|
G-77777777--------777777777-|
D-7777777755558888777777777-|   
A-5555555555556666555555555-|
E---------33336666----------|


Verse 2

  . . . .   . . . . . . .    . . . . . . .   . .   .   . .   . . .
E------------------------------------------------------------------|
B------------------------------------------------------------------|
G-7-7-7-7-7-7-7-7-1010101010101010-5-5-5-5-5-5-5-5-5-5-5-5-5-5-5-5-|
D-7-7-7-7-7-7-7-7-1010101010101010-5-5-5-5-5-5-5-5-5-5-5-5-5-5-5-5-|   
A-5-5-5-5-5-5-5-5-8-8-8-8-8-8-8-8--3-3-3-3-3-3-3-3-3-3-3-3-3-3-3-3-|
E------------------------------------------------------------------|
  . . . .   . . . . . . .    . . . . . . .   . .   .   . .   . . .

  . . . .   . . . . . . .   . . .  . . . .   . . . . . . .   . . .
E------------------------------------------------------------------|
B------------------------------------------------------------------|
G-7-7-7-7-7-7-7-7-1010101010101010-4-4-4-4-4-4-4-4-2-2-2-2-2-2-2-2-|
D-7-7-7-7-7-7-7-7-1010101010101010-4-4-4-4-4-4-4-4-2-2-2-2-2-2-2-2-|   
A-5-5-5-5-5-5-5-5-8-8-8-8-8-8-8-8--2-2-2-2-2-2-2-2-0-0-0-0-0-0-0-0-|
E------------------------------------------------------------------|
  . . . .   . . . . . . .   . . .  . . . .   . . . . . . .   . . .

  . . . .   . .   .   . .   . . .
E-----------------------------------------------------------------------|
B-----------------------------------------------------------------------|
G-7-7-7-7-7-7-7-7-7-7-7-7-7-7-7-7---------------------------------------|
D-7-7-7-7-7-7-7-7-7-7-7-7-7-7-7-7----------------7--7--7--7--7--7--7--7-|   
A-5-5-5-5-5-5-5-5-5-5-5-5-5-5-5-510101010101010107--7--7--7--7--7--7--7-|
E--------------------------------10101010101010105--5--5--5--5--5--5--5-|
  . . . .   . .   .   . .   . . .  


Verse 3

  . . . . . . . . . . . . . . . . . . . . . . . . . . . . . . . .
E-----------------------------------------------------------------|
B-----------------------------------------------------------------|
G-7-7-7-7-7-7-7-7-7-7-7-7-7-7-7-7-7-7-7-7-7-7-7-7-7-7-7-7-7-7-7-7-|
D-7-7-7-7-7-7-7-7-7-7-7-7-7-7-7-7-7-7-7-7-7-7-7-7-7-7-7-7-7-7-7-7-|   
A-5-5-5-5-5-5-5-5-5-5-5-5-5-5-5-5-5-5-5-5-5-5-5-5-5-5-5-5-5-5-5-5-|
E-----------------------------------------------------------------|
  . . . . . . . . . . . . . . . . . . . . . . . . . . . . . . . .

  . . . . . . . . . . . . . . . . . . . . . . . . . . . . . . . .
E-----------------------------------------------------------------|
B-----------------------------------------------------------------|
G-4-4-4-4-4-4-4-4-4-4-4-4-4-4-4-4-4-4-4-4-4-4-4-4-4-4-4-4-4-4-4-4-|
D-4-4-4-4-4-4-4-4-4-4-4-4-4-4-4-4-4-4-4-4-4-4-4-4-4-4-4-4-4-4-4-4-|   
A-2-2-2-2-2-2-2-2-2-2-2-2-2-2-2-2-2-2-2-2-2-2-2-2-2-2-2-2-2-2-2-2-|
E-----------------------------------------------------------------|
  . . . . . . . . . . . . . . . . . . . . . . . . . . . . . . . .

  . . . . . . . . . . . . . . . . . . . . . . . . . . . . . . . .
E-----------------------------------------------------------------|
B-----------------------------------------------------------------|
G-7-7-7-7-7-7-7-7-7-7-7-7-7-7-7-7-7-7-7-7-7-7-7-7-7-7-7-7-7-7-7-7-|
D-7-7-7-7-7-7-7-7-7-7-7-7-7-7-7-7-7-7-7-7-7-7-7-7-7-7-7-7-7-7-7-7-|   
A-5-5-5-5-5-5-5-5-5-5-5-5-5-5-5-5-5-5-5-5-5-5-5-5-5-5-5-5-5-5-5-5-|
E-----------------------------------------------------------------|
  . . . . . . . . . . . . . . . . . . . . . . . . . . . . . . . .

  . . . . . . . . . . . . . . . .
E---------------------------------------------------------|
B---------------------------------------------------------|
G-10101010101010101010101010101010-7--7--7--7--7--7--7--7-|
D-10101010101010101010101010101010-7--7--7--7--7--7--7--7-|   
A-8-8-8-8-8-8-8-8-8-8-8-8-8-8-8-8--5--5--5--5--5--5--5--5-|
E---------------------------------------------------------|
  . . . . . . . . . . . . . . . .


SONG ORDER:

Intro
Verse 1
Chorus
Post Chorus 1
Verse 1
Chorus x2
Post Chorus 2
Verse 2
Chorus x2
Verse 3
Chorus x2
Post Chorus 2



comments
We did not receive enough feedback on this tab! Please rate:
print report bad tab
1 2 3 4 5
I want to post or [tab]
guest
You may want to rate the tab now too:
select rating
Please do not post tabs as comments. Select "correction" instead!