Oops, an error
Loading. Please wait.

Young And Depressed Bass Tab

by MxPx
357 views 1 this week
no commentswrite comment
1 2 3 4 5
please rate
add to favorites
launch autoscroll
font size
0
reset
guitar tuner
Autoscroll
slow
fast
+/-
esc
set tempo
stop
Help us to improve Ultimate-Guitar.com Take our survey!
×
This Is A Cool And Easy Song Have Fun


Tabbed By:Edgardo Aguirre

Intro
G-----------------------------|
D-----------------------------|
A--0-00-2-22-5-55-7-77--777777|
E-----------------------------|

G-----------------------------------|
D-----------------------------------|
A--0-0000000-2-2222222-5-5555555-7~-|
E-----------------------------------|

Verse
G--------------------------------|
D--------------------------------| x3
A--000000-222222-555555-777777---|
E--------------------------------|

G---------------------------------|
D---------------------------------| 
A--000000-222222-55555555555555---|
E---------------------------------|

Pre-Chorus
G--------------------------------------------------------------------------|
D--------------------------------------------------------------------------|
A-----------55555555----------777-888-99999999-55555555-77777777-----------|
E--22222222----------55555555------------------------------------0-0-0-0-0-|


Chorus
G-----------------------------------------------------------------------|
D-----------------------------------------------------------------------|
A--00000000-22222222-55555555555555-------------------222-444-555-777---|
E-----------------------------------22222222-00000000-------------------|


Intro
G-----------------------------------|
D-----------------------------------|
A--0-0000000-2-2222222-5-5555555-7~-|
E-----------------------------------|


Verse
G--------------------------------|
D--------------------------------| x3
A--000000-222222-555555-777777---|
E--------------------------------|

G---------------------------------|
D---------------------------------| 
A--000000-222222-55555555555555---|
E---------------------------------|


Pre-Chorus
G--------------------------------------------------------------------------|
D--------------------------------------------------------------------------|
A-----------55555555----------777-888-99999999-55555555-77777777-----------|
E--22222222----------55555555-------------------------------------0-0-0-0-0|


Chorus
G------------------------------------------------------------------|
D------------------------------------------------------------------|
A--00000000-22222222-55555555555555-------------------222-444-5~---|
E-----------------------------------22222222-00000000--------------|


Bridge
G------------------------------------|
D------------------------------------|
A-----------00000000-7777-8888----0~-|
E--11111111--------------------------|

G---------------------------------|
D---------------------------------|x2
A------------00000000-------------|
E---11111111----------------------|

G-----------------------------------|
D-----------------------------------|
A-----------------------------------|
E-----1111111111111111--------------|


Chorus/End 
G-------------------------------------------------|
D-------------------------------------------------|
A--00-22-55555555555555---------222-444-555-777---|
E------------------------22-00--------------------|

G-----------------------------------------------------------------------|
D-----------------------------------------------------------------------|
A--00000000-22222222-55555555555555-------------------222-444-555-777---|
E-----------------------------------22222222-00000000-------------------|

G--------------------|
D--------------------|
A--222-444-555-777---|
E--------------------|

G------------------|
D------------------|
A--222-444-55-7~---|
E------------------|


Please Rate This Tab
Suggest correction
Give kudos to tab author, rate the tab!
1 2 3 4 5
comments
print report bad tab
guest
You may want to rate the tab now too:
select rating
Please do not post tabs as comments. Select "correction" instead!