Oops, an error
Loading. Please wait.

Your Problem My Emergency Tab

by MxPx
403 views 1 this week
no commentswrite comment
1 2 3 4 5
please rate
add to favorites
launch autoscroll
font size
0
reset
how to read this tab
guitar tuner
Autoscroll
slow
fast
+/-
esc
set tempo
stop
Help us to improve Ultimate-Guitar.com Take our survey!
×
YOUR PROBLEM MY EMERGENCY - MxPx

Tabbed By: Dan Reid "punx72@hotmail.com"

e|--------------------|
B|--------------------|
G|-11-------9---------|
D|-11---9---9---6---4-|
A|--9---9---7---6---4-|
E|------7-------4---2-|

e|-------------|---------------|----------------|
B|-------------|---------------|----------------|
G|-----11---13-|-9---8---8---8-|-9---8---9---11-|
D|-9---11---13-|-9---6---6---6-|-9---8---9---11-|
A|-9----9---11-|-7---6---6---6-|-7---6---7----9-|
E|-7-----------|---------------|----------------|

e|----------------|
B|----------------|
G|-9---11---------|
D|-9---11---9---6-|
A|-7----9---9---6-|
E|----------7---4-|

Fill:
e|--------------------------------------------------|-----------------|
B|--------------------------------------------------|-----------------|
G|-----9---8-------------------9---8---11---13---11-|-----9---13---11-|
D|-9---9---8---6---6---4---9---9---8---11---13---11-|-9---9---13---11-|
A|-9---7---6---6---6---4---9---7---6----9---11----9-|-9---7---11----9-|
E|-7-----------4---4---2---7------------------------|-7---------------|

====


YOUR PROBLEM MY EMERGENCY - MxPX


Dave Budness

opening chord:  High B

      B    E  
Get a clue
G#      Bb       B   E
I'm not here for you
G#       Bb
I'm not like you

B                E 
I'm not gonna do what you say is right
       G#               B   
`cause then I'll end up just like you
B                 E
I'm gonna rebel,  I'm gonna fight
     G#          Bb 
this organized manipulation


B, F#, G#, F#, B, Bb, B, F#, E, Eb, E, F#


E        C#    B          Eb
Learn to think before you speak
E       C#                B    E  G#  F#, B, E, High F#, High G#, High F#
and you just might make a point


B, E, G#, F#,

E, Eb, C#, B, Bb, B,

B, G#, B, G#, F#


B                   E                     G#
I'm just an average guy, is that hard to accept?
                F#                 B
I live a normal life I've got no regrets
                     E                     G#
Don't make me out to be something that I'm not
                   F#                              B
I never said I was anything, so don't expect me to be


B, F#, G#, F#, B, Bb, B, F#, E, Eb, E, F#


B                              E          High F# F
Why is your problem always my emergency?
B                                        E
This is no court of law, you're all speculation
B             
Sex masquerades as rock and roll,
                          E              High F  E
and manufactured music to save your soul.
B
So go and do your homework
                    E         High F  E
demographics target marketing
Suggest correction
Give kudos to tab author, rate the tab!
1 2 3 4 5
comments
print report bad tab
guest
You may want to rate the tab now too:
select rating
Please do not post tabs as comments. Select "correction" instead!