Oops, an error
Loading. Please wait.

Your Turn Bass Tab

by MxPx
134 views 1 this week
no commentswrite comment
1 2 3 4 5
please rate
add to favorites
launch autoscroll
font size
0
reset
guitar tuner
Autoscroll
slow
fast
+/-
esc
set tempo
stop
Help us to improve Ultimate-Guitar.com Take our survey!
×
Riff

G-------------------------------------------------------------------------|On second time in song
D-------------------------------------------------------------------------|and on the lasttime
A---------------4-4-4-4-4-0-0-0-0-0-2-2-2-2-2-2-----|in song, play A2 15--|
E—0-0-0-0-0---------------------------------------------------------------|times instead of 5.
Verse

G---------------------------------------------------|
D---2-2-2-2-2-------------0-0-0-0-0-0-0-0-0-0-------|	REPEAT
A---------------2-2-2-2-2---------------------------|
E---------------------------------------------------|

Refrain Intro

G---------------------------------------------------------------|
D---2-2-2-2-2-2-2-------------------0-0-0-0-0-0-0-0-0-0-0-0-0-0-|
A---------------------2-2-2-2-2-2-2-----------------------------|
E---------------------------------------------------------------|

G---------------------------------------------------------------|
D---2-2-2-2-2-2-2-------------------0-0-0-0-0-0-0-0-0-0-0-0-----|
A---------------------2-2-2-2-2-2-2-----------------------------|
E---------------------------------------------------------------|

G-----------------------------------|
D-----------------------------------|
A---2-2-2-2-2-2-2-2-2-2-2-2-2-2-2-2-|
E-----------------------------------|

Refrain

G-------------------------------------------------------------------|
D-------------------------------------------------------------------|
A---------------------------4-4-4-4-4-4-4-4-4-4-0-0-0-0-0-0-0-0-0-0-|
E---0-0-0-0-0-0-0-0-0-0---------------------------------------------|

G-----------------------|        After 2nd time after Verse 2,
D-----------------------|        play, hold A1 once (go into bridge)
A---2-2-2-2-2-2-2-2-2-2-|
E-----------------------|


Bridge

G---------------------------------------------------------------|
D---2-2-2-2-2-2-2-2-2-2-2-2-2-2-2-------------------------------|
A---------------------------------------------------------------|
E---------------------------------4-4-4-4-4-4-4-4-4-4-4-4-4-4-4-|

G-----------------------------------------------------------------|
D---4-4-4-4-4-4-4-4-4-4-4-4-4-4-4---------------------------------|
A-------------------------------------------------2-2-2-2-2-2-2-2-|
E---------------------------------2-2-2-2-2-2-2-2-----------------|


Order

Riff, 2X
Verse
Refrain Intro
Refrain
Riff, 2X
Verse
Refrain Intro
Refrain, 2X
Bridge, 2X
Refrain, 2X
Riff, 4X
Suggest correction
Give kudos to tab author, rate the tab!
1 2 3 4 5
comments
print report bad tab
guest
You may want to rate the tab now too:
select rating
Please do not post tabs as comments. Select "correction" instead!