Oops, an error
Loading. Please wait.

Youre Not Alone Tab

version 1
version 1

Whole song

Interactive

by MxPx
1,729 views 1 this week
1 commentread comment
1 2 3 4 5
excellent!
x 2
add to favorites
launch autoscroll
font size
0
reset
how to read this tab
guitar tuner
Tab Pro tools
  • play this tab
  • loop segment
  • change instrument
  • show fretboard
  • metronome
Autoscroll
slow
fast
+/-
esc
set tempo
stop
Contributor
-----------------------------------------------------------------------------
                         MXPX - You're Not Alone
-----------------------------------------------------------------------------

Tabbed by Don C.
Email: lilxvtecxpwr@yahoo.com
                                                 
( ): palm mute
 ~ : let ring
 ^ : hit note rapidly

Tuning: Standard

NOTE: after the bridge, basically all the notes move 2 steps up. i tabbed it all
out anyway, but when u play along with the song, you'll know what im talking about. 


INTRO/RIFF 1:                              
                                  then play this once:
e|---------------------------|    |-----------------------------------------|
B|---------------------------|    |-----------------------------------------|
G|--------7-7-------7-7------|    |------------------7-7-7-7----------------|
D|--7-7-7-7-7-7-7-7-7-7-2-2--|    |--7~--7~--4~--4~--7-7-7-7-2-2-2-2-7~--7--|
A|--7-7-7-5-5-7-7-7-5-5-2-2--|    |--4~--7~--4~--4~--5-5-5-5-2-2-2-2-7~--7--|
E|--5-5-5-----5-5-5-----0-0--|X2  |--5~--4~--2~--1~----------0-0-0-0-5~--5--|


VERSE:
e|-----------------------------------------------------------------------|    
B|-----------------------------------------------------------------------|    
G|-----------------------------------4-4-4-4-4-4-4-4-7-7-7-7-7-7-7-7-----|    
D|---7-7-7-7-7-7-7-7-2-2-2-2-2-2-2-2-4-4-4-4-4-4-4-4-7-7-7-7-7-7-7-7-----|  
A|---7-7-7-7-7-7-7-7-2-2-2-2-2-2-2-2-2-2-2-2-2-2-2-2-5-5-5-5-5-5-5-5-----|   
E|---5-5-5-5-5-5-5-5-0-0-0-0-0-0-0-0-------------------------------------|X2   
"the time is near"....
    "We're still young".....


RIFF 1 TWICE THEN PICKSLIDE    

VERSE 


CHORUS 1:
e|----------------------------------------------------------------------|    
B|----------------------------------------------------------------------|    
G|---------------------------------------------------7-7-7-7-7-7-7-7----|    
D|---7-7-7-7-7-7-7-7-2-2-2-2-2-2-2-2-4-4-4-4-4-4-4-4-7-7-7-7-7-7-7-7----|  
A|---7-7-7-7-7-7-7-7-2-2-2-2-2-2-2-2-4-4-4-4-4-4-4-4-5-5-5-5-5-5-5-5----|   
E|---5-5-5-5-5-5-5-5-0-0-0-0-0-0-0-0-2-2-2-2-2-2-2-2--------------------|X2
    "You're not alone"..
                                    "nothing will be like"..

e|-------------------------------------------------------------|    
B|---10-9-10^--12-9-10^--10-9-10^--10-12-9-10-12-9-------------|    
G|-------------------------------------------------------------|    
D|-------------------------------------------------------------| 
A|-------------------------------------------------------------|    
E|-------------------------------------------------------------|


RIFF 1 TWICE THEN PICKSLIDE   

VERSE 

CHORUS


BRIDGE:
                                                         Then this once:
e|---------------------------------------------------|   |-------|
B|---------------------------------------------------|   |-------|
G|------------------7-7-7-7-9-9-9-9------------------|   |-7--9--|
D|--7~--7~--4~--4~--7-7-7-7-9-9-9-9-7-7-7-7-7-7-7-7--|X2 |-7--9--|
A|--4~--7~--4~--4~--5-5-5-5-7-7-7-7-7-7-7-7-7-7-7-7--|   |-5--7--|
E|--5~--4~--2~--1~------------------5-5-5-5-5-5-5-5--|   |-------|


PLAY RIFF 1 FOUR TIMES


*this is where everything is 2 notes up. basically you can play everything tabbed
above, but move 2 frets higher*

SOLO:
e|-------------------------------------------------------------|    
B|---12-11-12~-14-11-12~-12-11-12~-12-14-11-12-14-11-----------|    
G|-------------------------------------------------------------|    
D|-------------------------------------------------------------| X2
A|-------------------------------------------------------------|    
E|-------------------------------------------------------------| 

CHORUS 2:
e|---------------------------------------------------------------------|    
B|---------------------------------------------------------------------|    
G|---4-4-4-4-4-4-4-4---------------------------------------------------|    
D|---4-4-4-4-4-4-4-4-4-4-4-4-4-4-4-4-6-6-6-6-6-6-6-6-2-2-2-2-2-2-2-2---|  
A|---2-2-2-2-2-2-2-2-4-4-4-4-4-4-4-4-6-6-6-6-6-6-6-6-2-2-2-2-2-2-2-2---|   
E|-------------------2-2-2-2-2-2-2-2-4-4-4-4-4-4-4-4-0-0-0-0-0-0-0-0---|X2

then this:
e|-----------------------|    
B|-----------------------|    
G|---4~------------------|    
D|---4~-4-4~-6~-2-2~-----|  then pickslide
A|---2~-4-4~-6~-2-2~-----|   
E|------2-2~-4~-0-0~-----|


THEN CHORUS 2 AGAIN


THEN SOLO AGAIN BUT LIKE THIS:
e|-------------------------------------------------------------|    
B|---12-11-12^-14-11-12^-12-11-12^-12-14-11-12-14-11-----------|    
G|-------------------------------------------------------------|    
D|-------------------------------------------------------------| X2
A|-------------------------------------------------------------|    
E|-------------------------------------------------------------| 

AND END WITH THIS RIFF 2:
e|--------------------------------|    
B|--------------------------------|   
G|--------9-9-------9-9-1111------|    
D|--9-9-9-9-9-9-9-9-9-9-1111-9~---| 
A|--9-9-9-7-7-9-9-9-7-7-9-9--9~---|    
E|--7-7-7-----7-7-7----------7~---|    


THERE YOU GO, FOR THE MOST PART, I THINK ITS RIGHT.
comments
We did not receive enough feedback on this tab! Please rate:
print report bad tab
1 2 3 4 5
1 comment total.
0 reply
#1bf wrote on October 1 2005, 03:33 pm

the tab was good except for the part that had irregular chords, i think it goes like this
d-4--4--2--1
a-4--4--2--2
e-2--3--0--0

I want to post or [tab]
guest
You may want to rate the tab now too:
select rating
Please do not post tabs as comments. Select "correction" instead!