Oops, an error
Loading. Please wait.

Youre On Fire Tab

version 1
version 1

Whole song

Interactive

by MxPx
4,484 views 6 this week
2 commentsread comments
1 2 3 4 5
excellent!
x 5
add to favorites
launch autoscroll
font size
0
reset
how to read this tab
guitar tuner
Tab Pro tools
  • play this tab
  • loop segment
  • change instrument
  • show fretboard
  • metronome
×
Best way to learn
"Youre On Fire"
Autoscroll
slow
fast
+/-
esc
set tempo
stop
Difficulty
intermediate
Ok. so dude. this songs kinda easy play. but u know. u gotta practice it alot. email me 
anything u wanna change and shit.
Tabbed by: Angel.
email: evil_angel_0605@hotmail.com


Its only guitar one. the other guitar is just the chorus. over. and over. lol.

Intro.
e|------2------------------2----------------2--------------------|
B|--0-0---4-2-0-2-4-0--0-0---4-2-0-2-4--0-0---4-2-0-2-4----------|
G|---------------------------------------------------------------|
D|---------------------------------------------------------------|
A|---------------------------------------------------------------|
E|---------------------------------------------------------------|
                                                                     x2
e|------4-2-------2----------------------------------------------|
B|--0-0-----4-2-4------------------------------------------------|
G|---------------------------------------------------------------|
D|---------------------------------------------------------------|
A|---------------------------------------------------------------|
E|---------------------------------------------------------------|


Verse.
e|--------------------------------------------------------------------|
B|--------------------------------------------------------------------|
G|--------11-11-11----------------11-11-11-------------13-13-13-11-11-|
D|--9-9-9----------13-13-11-11-11----------13-13-9-9-9----------------|
A|--------------------------------------------------------------------|
E|--------------------------------------------------------------------|
 ~~~~~~~~~~~~~~~~~~~~~~~~~~~~~~~~~~~PM~~~~~~~~~~~~~~~~~~~~~~~~~~~~~~~~   x2
e|---------------------------------------------------------------|
B|---------------------------------------------------------------|
G|--------13-13-13-11-11-----------------------------------------|
D|--9-9-9--------------------------------------------------------|
A|---------------------------------------------------------------|
E|---------------------------------------------------------------|
 ~~~~~~~~~~~~PM~~~~~~~~~~~

e|---------------------------------------------------------------|
B|---------------------------------------------------------------|
G|----11-------11------13-11---13-11-after the 2nd time->>-13-14-|
D|--9----13-11----13-9-------9-----------------------------------| x2
A|---------------------------------------------------------------|
E|---------------------------------------------------------------|

e|---------------------------------------------------------------|
B|---------------------------------------------------------------|
G|--3-1-3----4-2-4----3-1-3-4-2-4-6-4-6--------------------------|
D|---------------------------------------------------------------|
A|---------------------------------------------------------------|
E|---------------------------------------------------------------|


Chorus.
e|---------------------------------------------------------| Yo if you\'re
B|---------------------------------------------------------| playing this you
G|--4---6---9----------------------------------------------| can get the
D|--4---6---9----------------------------------------------| pattern lol. and
A|--2---4---7----------------------------------------------| play this x2.
E|--2---4---7----------------------------------------------|

e|---------------------------------------------------------| Again. Get the
B|---------------------------------------------------------| pattern yourself.
G|---------------------------------------------------------| play this once.
D|--6---4---2----------------------------------------------| Then play the
A|--6---4---2----------------------------------------------| beggining of the
E|--4---2---0----------------------------------------------| chorus once.


After that play the intro but only once.

Then the verse again.

Then chorus again.

The this.

Bridge.
e|---------------------------------------------------------------|
B|---------------------------------------------------------------|
G|---------------------------------------------------------------|
D|--6---4---2----------------------------------------------------| x4
A|--6---4---2----------------------------------------------------|
E|--4---2---0----------------------------------------------------|
~~~~~~~PM~~~~~~

then

e|-----------------------------------------------------------| Again. Get the
B|-----------------------------------------------------------| pattern urself
G|-----------------------------------------------------------|
D|--2--4-----------------------------------------------------|
A|--2--4-----------------------------------------------------|
E|--0--2-----------------------------------------------------|


Play chorus again. and then the intro again twise. and ur done :D.
comments
print report bad tab
2 comments total.
+3 reply
fatguitarninja wrote on November 16 2007, 12:38 pm

That intro rocks

+2 reply
meistermuetze wrote on September 14 2008, 06:32 am

i like that song :):)
Great Tab :)

I want to post or [tab]
guest
You may want to rate the tab now too:
select rating
Please do not post tabs as comments. Select "correction" instead!