Oops, an error
Loading. Please wait.

All My Friends Tab

7,383 views 1 this week
2 commentsread comments
1 2 3 4 5
excellent!
x 6
add to favorites
launch autoscroll
font size
0
reset
how to read this tab
guitar tuner
Autoscroll
slow
fast
+/-
esc
set tempo
stop
Help us to improve Ultimate-Guitar.com Take our survey!
×
Author
Standard Tuning

CORRECTED SLIGHTLY!

Updated 27/12/08 The chords G and A# were added
Updated 16/01/10 Chorus has been updated thanks to IGotIssues

Verse
    Dm          C        G           A#

E|----------------------------------------------------|
B|-------6----------5------------------------10-------|
G|---------7----------5---------10---------10---10----|
D|-----7-----------5----------9----9-----8---------8--|
A|---5-------5---3------3--10--------10---------------|
E|----------------------------------------------------|
    Dm         C         G            A#
E|----------------------------------------------------|
B|-------6----------5---------------------------------|
G|---------7----------5---------10-------------10-----|
D|-----7-----------5----------9----9----9----9----9---|
A|---5-------5---3------3--10--------10---10--------10|
E|----------------------------------------------------|

Chorus

E|---------------------------------------------|
B|---------------------------------------------|
G|------5-----------5-----------10-------------|
D|----7---7---7---3---5---5---7----10---10-----|
A|--5-------5---3-------3---8---------8--------|
E|---------------------------------------------|

E|-------------------     ---------------------|
B|-------------------     ---------------------|
G|------5------------     --------5------------|
D|----3---3---3------ OR  ---------------------|
A|--1-------1--------     ------8---8---8------|
E|-------------------     ----6-------6--------|

*Strummage of the "chords"*

Outro

E|---------------------|
B|---------------------|
G|--5------5------5----|
D|--7------5------3----|
A|--5------3------1----|
E|---------------------|


Email corrections to Blassassin@hotmail.com

Otherwise, enjoy =D
Suggest correction
comments
print report bad tab
2 comments total.
+1 reply
Bair 2,206 wrote on September 25 2008, 01:30 pm

your 2 missing chords are G and A#.

+1 reply
IGotIssues 41 wrote on March 28 2009, 05:31 pm

for the chorus try this

E|---------------------------------------------|
B|---------------------------------------------|
G|------5-------5---------10-------5-----------|
D|----3---3---3---3-----7----7---3---3---------|
A|--5-------3-------3/8--------3-------3-------|
E|---------------------------------------------|

guest
You may want to rate the tab now too:
select rating
Wanna post a correction for this tab? Suggest correction