Oops, an error
Loading. Please wait.

Boys Grab Your Guns Tab

version 1
version 1

Whole song

Interactive

5,467 views 1 this week
4 commentsread comments
1 2 3 4 5
accurate
x 4
add to favorites
launch autoscroll
font size
0
reset
how to read this tab
guitar tuner
Autoscroll
slow
fast
+/-
esc
set tempo
stop
Help us to improve Ultimate-Guitar.com Take our survey!
×
Difficulty
Tuning
intermediate
D A D G B E
OMFG! MAH rocks my socks off.
Anyway I came up with this tab by ear.
I thought it sounded pretty good so review me!
Questions? Complaints? Suggestions?
E-mail me: supahfly_aznguy@hotmail.com

THANKS! Robby <3

Drop D Tuning

GTR I
e|------------------------------------------------------------------------|
B|------------------------------------------------------------------------|
G|--------------------------------------7/9\7------9-----7---9------4--4^-|
D|--3-3-------10----10/12\10--------9-------------------------------------|
A|--3-3-------------------------7-7---7--------8-8---8-8---8----5-5---5---|
E|--3-3--7-7------7-----------7-------------------------------------------|

e|------------------------------------------------------------------------|
B|------------------------------------------------------------------------|
G|---------------------------------7/9\7---99-7-99-7-99-7-9-10-9----------|
D|-------10----10/12\10--------9-----------77-7-77-7-77-7-7-7--7---7~-----|
A|-------------------------7-7---7---------88-8-88-8-88-8-8-8--8---7~-----|
E|--7-7------7-----------7-----------------------------------------7~-----|

e|-----------------------------------------------------------------|
B|-----------8----------------------------13-----------------------|
G|-------7h9---9-7-7h9--------------12h14----14-12-12h14-----------|
D|-----------------------------------------------------------------|
A|-----------------------------------------------------------------|
E|-----------------------------------------------------------------|
    ...Devastation               ...Frustration

e|--------------------------------|
B|--------8-----------------------|
G|----7h9---9-7-7/9-7-------------|
D|--------------------10-9^^^^^---|
A|--------------------------------|
E|--------------------------------|

e|----------------------------------------------------|
B|----------------------------------------------------|
G|----------------------------------------------------|
D|--3-3---3/5-5--5-55---5/7-7-----7/10-10-10-1010-----|
A|--3-3---3/5-5--5-55---5/7-7-----7/10-10-10-1010-----|
E|--3-3---3/5-5--5-55---5/7-7-----7/10-10-10-1010-----|

e|-----------------------------------------------|
B|-----------------------------------------------|
G|-----------------------------------------------|
D|--3-3---3/5-5--5575-22222223333-x-x-x-x--------|
A|--3-3---3/5-5--5575-22222223333-x-x-x-x--------|
E|--3-3---3/5-5--5575-22222223333-x-x-x-x--------|
                       xxxxxxxxxx

e|------------------------|      e|-------------------------------------|
B|------------------------|      B|-------------------------------------|
G|------------------------|      G|--------------99-7-99-7-99-7-9-10-9--|
D|--7----2----3----0------| Then D|--7----2------77-7-77-7-77-7-7-7--7--|
A|--7-x8-2-x8-3-x8-0-x8---|      A|--7-x8-2-x8---88-8-88-8-88-8-8-8--8--|
E|--7----2----3----0------|      E|--7----2-----------------------------|

e|-------------------------------------------------12----------------|
B|-/10-------8----------------------------13----------13-------13----|
G|-------7h9---9-7-7h9--------------12h14----14-12-------12h14-------|
D|-------------------------------------------------------------------|
A|-------------------------------------------------------------------|
E|-------------------------------------------------------------------|

e|--------------------------------|
B|--------8-----------------------|
G|----7h9---9-7-7/9-7-------------|
D|--------------------10-9^^^^^---|
A|--------------------------------|
E|--------------------------------|

e|-------------------------------------|
B|-------------------------------------|
G|-------------------------------------|
D|--77-777-777-777-7-33-333-333-333-3--|x2
A|--77-777-777-777-7-33-333-333-333-3--|
E|--77-777-777-777-7-33-333-333-333-3--|

e|----------------------------------------------------|
B|----------------------------------------------------|
G|----------------------------------------------------|
D|--3-3---3/5-5--5-55---5/7-7-----7/10-10-10-1010-----|
A|--3-3---3/5-5--5-55---5/7-7-----7/10-10-10-1010-----|
E|--3-3---3/5-5--5-55---5/7-7-----7/10-10-10-1010-----|

e|-----------------------------------------------|
B|-----------------------------------------------|
G|-----------------------------------------------|
D|--3-3-3-33-3/5-5--5575-22222223333-----2b1/2-0-|
A|--3-3-3-33-3/5-5--5575-22222223333---3---------|
E|--3-3-3-33-3/5-5--5575-22222223333-------------|
                          xxxxxxxxxx

e|-------------------------------------------------------------|
B|-------------------------------------------------------------|
G|--------------------------------------99-7-99-7-99-7-9-10-9--|
D|--7----2----3----0--------7----2------77-7-77-7-77-7-7-7--7--|x2
A|--7-x8-2-x8-3-x8-0-x8-----7-x8-2-x8---88-8-88-8-88-8-8-8--8--|
E|--7----2----3----0--------7----2-----------------------------|

e|---------------------------------------------------|
B|---------------------------------------------------|
G|---------------------------------------------------|
D|-----99----------1010--------------1212------5-----|x2**
A|---77--77-x2---88----88-x2-----1010----1010--3x16--|
E|-77----------99------------1010--------------3-----|
**second time w/ more EMPHASIS!!!

e|---------------------------|
B|---------------------------|
G|---------------------------|
D|--7----2----3----0----0-0--|
A|--7-x8-2-x8-3-x8-0-x5-0-0--|
E|--7----2----3----0----0-0--|
    x    x    x    x

e|----------------------------------|
B|----------------------------------|
G|----------------------------------|
D|--7----2----3----0-0-----2b1/2-0--|
A|--7-x8-2-x8-3-x8-0-0---3----------|
E|--7----2----3----0-0--------------|
    x              x x

e|-------------------------------------------------------------|
B|-------------------------------------------------------------|
G|--------------------------------------99-7-99-7-99-7-9-10-9--|
D|--7----2----3----0--------7----2------77-7-77-7-77-7-7-7--7--|x2
A|--7-x8-2-x8-3-x8-0-x8-----7-x8-2-x8---88-8-88-8-88-8-8-8--8--|
E|--7----2----3----0--------7----2-----------------------------|

e|----------------------------------------------------------------------|
B|----------------------------------------------------------------------|
G|---------------------------------7/9\7------9-----7---9---------------|
D|-------10----10/12\10--------9---------------------------0-0----2b1/2-|
A|-------------------------7-7---7--------8-8---8-8---8----0-0--3-------|
E|--7-7------7-----------7---------------------------------0-0----------|

e|----------------------------------------------------------------------|
B|----------------------------------------------------------------------|
G|---------------------------------7/9\7---99-7-99-7-99-7-9-10-9--------|
D|-------10----10/12\10--------9-----------77-7-77-7-77-7-7-7--7---7~---|
A|-------------------------7-7---7---------88-8-88-8-88-8-8-8--8---7~---|
E|--7-7------7-----------7-----------------------------------------7~---|


HOPE YOU ENJOY!!!
I'm working out the rhythm guitar.
But you'll prolly figure it out with this as an idea. :]]]
Suggest correction new What's this?
You can suggest a correction to this tab. Community and Mods will review your correction and vote to approve or reject it.
comments
print report bad tab
4 comments total. Showing first comments.
0 reply
heyitsthemokid 588 wrote on June 11 2007, 12:33 am

its pretty good gj

0 reply
billythexninja 104 wrote on June 27 2007, 01:57 pm

goog job.
thanks alot.

+1 reply
DriveByLetdown 21 wrote on July 8 2007, 01:51 am

I really wish someone would post tabs to "Tired and Uninspired".
that would make my day.

guest
You may want to rate the tab now too:
select rating
Please do not post tabs as comments. Select "correction" instead!