Oops, an error
Loading. Please wait.

Boys Grab Your Guns Tab

version 2
version 2

Whole song

Interactive

4,142 views 1 this week
5 commentsread comments
1 2 3 4 5
excellent!
x 1
add to favorites
launch autoscroll
font size
0
reset
how to read this tab
guitar tuner
Tab Pro tools
  • play this tab
  • loop segment
  • change instrument
  • show fretboard
  • metronome
Autoscroll
slow
fast
+/-
esc
set tempo
stop
Contributor
Tuning
D A D G B E
-------------------------------------------------------------------------------
                             Boys! Grab Your Guns - My American Heart
-------------------------------------------------------------------------------
Tabbed by:heyitsthemokid

Tuning:Drop D

hopefully that this tab was good.

Guitar 2
e|--------------------------------------|
B|--------------------------------------|
G|--------------------------------------|
D|-77777777-22222222-33333333-00000000--|
A|-77777777-22222222-33333333-00000000--|
D|-77777777-22222222-33333333-00000000--|

e|--------------------------------------|
B|--------------------------------------|
G|--------------------------------------|
D|-77777777-22222222-33-233-233-2333-7~-|
A|-77777777-22222222-33-233-233-2333-7~-|
D|-77777777-22222222-33-233-233-2333-7~-|

e|--------------------------------------------------|
B|----------------------------------13--------------|
G|-------12-------------------12h14----14-12-12h14~-|
D|-12h14---14-12-12h14~-----------------------------|
A|--------------------------------------------------|
D|--------------------------------------------------|

e|-------------------------------|
B|-------------------------------|
G|-------12----------------------|
D|-12h14----14-12-12h14-12-10-9~-|
A|-------------------------------|
D|-------------------------------|

e|----------------------------------------------|
B|----6~------8~--------10~--------12-------13--|
G|----------------------------------------------|
D|-77----7/99----9/1010-----10/1212--12/1414----|
A|----------------------------------------------|
D|----------------------------------------------|

e|-------------------------------------------|
B|----6~------8~--------10-------------------|
G|-------------------------------------------|
D|-77----7/99----9/1010----22222223333-xxxx--|
A|-------------------------22222223333-xxxx--|
D|-------------------------22222223333-xxxx--|
                            ..........

e|---------------------------------------|
B|---------------------------------------|
G|-12/1414141414141414/1717171716161616--|
D|---------------------------------------|
A|---------------------------------------|
D|---------------------------------------|

e|---------------------------------------|
B|---------------------------------------|
G|-12/1414141414141414/1717161614141212--|
D|---------------------------------------|
A|---------------------------------------|
D|---------------------------------------|

e|---------------------------------------|
B|---------------------------------------|
G|-12/1414141414141414/1717171716161616--|
D|---------------------------------------|
A|---------------------------------------|
D|---------------------------------------|

e|------------------------------------|
B|------------------------------------|
G|-7-9b-7-9b-7-9b-7-9b-10-9b-7---/14--|
D|------------------------------------|
A|------------------------------------|
D|------------------------------------|

e|-------------------------------------------12----------------|
B|----------------------------------13----------13---------13--|
G|-------12-------------------12h14----14-12-------14-12h14----|
D|-12h14---14-12-12h14~----------------------------------------|
A|-------------------------------------------------------------|
D|-------------------------------------------------------------|

e|--------------------------------|
B|--------------------------------|
G|-------12-----------------------|
D|-12h14----14-12-12h14-12-10-9~--|
A|--------------------------------|
D|--------------------------------|

e|--------------------------------------|
B|--------------------------------------|
G|--------------------------------------|
D|--77-777-777-777-7-33-333-333-333-3/--| (x2) second time slide down to 0
A|--77-777-777-777-7-33-333-333-333-3/--|
E|--77-777-777-777-7-33-333-333-333-3/--|
    .. ... ... ... . .. ... ... ... .

e|----------------------------------------------|
B|----6~------8~--------10~--------12-------13--|
G|----------------------------------------------|
D|-77----7/99----9/1010-----10/1212--12/1414----|
A|----------------------------------------------|
D|----------------------------------------------|

e|---------------------------------------------|
B|----6~------8~--------10---------------------|
G|---------------------------------------------|
D|-77----7/99----9/1010----22222223333---------|
A|-------------------------22222223333-3--7br--|
D|-------------------------22222223333---------|
                            ..........
e|---------------------------------------|
B|---------------------------------------|
G|-12/1414141414141414/1717171716161616--|
D|---------------------------------------|
A|---------------------------------------|
D|---------------------------------------|

e|---------------------------------------|
B|---------------------------------------|
G|-12/1414141414141414/1717161614141212--|
D|---------------------------------------|
A|---------------------------------------|
D|---------------------------------------|

e|---------------------------------------|
B|---------------------------------------|
G|-12/1414141414141414/1717171716161616--|
D|---------------------------------------|
A|---------------------------------------|
D|---------------------------------------|

e|------------------------------|
B|------------------------------|
G|-7-9b-7-9b-7-9b-7-9b-10-9b-7--|
D|------------------------------| (x2)starting from after brb.
A|------------------------------|
D|------------------------------|
  [Note: palmuted and played softly]
e|-----------------------------------------------------------------------|
B|-----------------------------------------------------------------------|
G|-----------------------------------------------------------------------|
D|-----99------99------1010------1010----------1212------------1212------|
A|---77--77--77--77--88----88--88----88----1010----1010----1010----1010--|
D|-77------77------99--------99--------1010------------1010--------------|
   ..................... . ....... . ... . . . . . . . . . . . . . . .
e|-------------------|
B|-------------------|
G|-------------------|
D|-3333333333333333--|
A|-3333333333333333--|
D|-3333333333333333--|
   ................
e|-----------------------------------------------------------------------|
B|-----------------------------------------------------------------------|
G|-----------------------------------------------------------------------|
D|-----99------99------1010------1010----------1212------------1212------|
A|---77--77--77--77--88----88--88----88----1010----1010----1010----1010--|
D|-77------77------99--------99--------1010------------1010--------------|

e|-------------------|
B|-------------------|
G|-------------------|
D|-3333333333333333--|
A|-3333333333333333--|
D|-3333333333333333--|
   ................
e|----------------------------------------|
B|----------------------------------------|
G|----------------------------------------|
D|--77777777-22222222-33333333-00000-0-0--|
A|--77777777-22222222-33333333-00000-0-0--|
E|--77777777-22222222-33333333-00000-0-0--|
    ........ ........ ........ .....
e|------------------------------------------|
B|------------------------------------------|
G|------------------------------------------|
D|--77777777-22222222-33333333-0-0----------|
A|--77777777-22222222-33333333-0-0--3--7br--|
E|--77777777-22222222-33333333-0-0----------|
    ........                   . .
e|---------------------------------------|
B|---------------------------------------|
G|-12/1414141414141414/1717171716161616--|
D|---------------------------------------|
A|---------------------------------------|
D|---------------------------------------|

e|---------------------------------------|
B|---------------------------------------|
G|-12/1414141414141414/1717161614141212--|
D|---------------------------------------|
A|---------------------------------------|
D|---------------------------------------|

e|---------------------------------------|
B|---------------------------------------|
G|-12/1414141414141414/1717171716161616--|
D|---------------------------------------|
A|---------------------------------------|
D|---------------------------------------|

e|------------------------------|
B|------------------------------|
G|-7-9b-7-9b-7-9b-7-9b-10-9b-7--|
D|------------------------------|
A|------------------------------|
D|------------------------------|

e|------------------------------------------------------------------|
B|------------------------------------------------------------------|
G|-----------------------------7/9\7------9-----7---9---------------|
D|-----10---10/12\10-------9---------------------------0-0----------|
7A|---------------------7-7---7--------8-8---8-8---8----0-0--3-7br--|
D|-7-7----7--------------------------------------------0-0----------|

e|-----------------------------------------------------------------------|
B|-----------------------------------------------------------------------|
G|--------------------------------7/9\7--7-9b-7-9b-7-9b-7-9b-10-9b-7-----|
D|------10----10/12\10--------9---------------------------------------7~-|
A|------------------------7-7---7-------------------------------------7~-|
D|-7-7------7---------------------------------------------------------7~-|

| .   palm mute
| /   slide up
| \   slide down   
| br  bend release 
| ~   let ring
| x   Mute note
===============================================================================
comments
We did not receive enough feedback on this tab! Please rate:
print report bad tab
1 2 3 4 5
5 comments total. Showing first comments.
+1 reply
DriveByLetdown wrote on July 12 2007, 10:41 pm

Someone please tab out Tired and Uninspired.

0 reply
heyitsthemokid wrote on July 12 2007, 11:33 pm

ill try too...

0 reply
billythexninja wrote on July 23 2007, 04:17 pm

is this the secoond guitar?
i cant tell.

I want to post or [tab]
guest
You may want to rate the tab now too:
select rating
Please do not post tabs as comments. Select "correction" instead!