Oops, an error
Loading. Please wait.

Days Ive Died Tab

version 1
version 1

Solo

Whole song

150 views 1 this week
no commentswrite comment
1 2 3 4 5
please rate
add to favorites
launch autoscroll
font size
0
reset
how to read this tab
guitar tuner
Autoscroll
slow
fast
+/-
esc
set tempo
stop
Help us to improve Ultimate-Guitar.com Take our survey!
×
Author
-------------------------------------------------------------------------------
                             the days i've died (solo) - My American Heart
-------------------------------------------------------------------------------
Tabbed by: MR. amL
Email: seymor_butts123@yahoo.com

Tuning: drop d

e|--12~------12-0-10-0---------------12-0--10--0-----------------------------|
B|---------------------10p0-12----------------------10p0-12------------------|
G|---------------------------------------------------------------------------|
D|---------------------------------------------------------------------------|
A|---------------------------------------------------------------------------|
D|---------------------------------------------------------------------------|

e|------------------------------------------------------------------------------|
B|------------------------------------------------------------------------------|
G|--12-------12-----------------------------------------------------------------|
D|----12-10-----------10--12----------------------------------------------------|
A|--------------------10--12----------------------------------------------------|
D|--------------------10--12----------------------------------------------------|
                      PM  PM
                      *not strumming pattern


| /  slide up
| \  slide down
| h  hammer-on
| p  pull-off
| ~  vibrato
| +  harmonic
| x  Mute note
===============================================================================
Suggest correction
What's this?
You can suggest a correction to this tab. Community and Mods will review your correction and vote to approve or reject it.
comments
We did not receive enough feedback on this tab! Please rate:
print report bad tab
1 2 3 4 5
guest
You may want to rate the tab now too:
select rating
Please do not post tabs as comments. Select "correction" instead!