Oops, an error
Loading. Please wait.

Days Ive Died Tab

version 1
version 1

Solo

Whole song

246 views 3 this week
no commentswrite comment
1 2 3 4 5
please rate
add to favorites
launch autoscroll
font size
0
reset
how to read this tab
guitar tuner
Tab Pro tools
  • play this tab
  • loop segment
  • change instrument
  • show fretboard
  • metronome
Autoscroll
slow
fast
+/-
esc
set tempo
stop
Contributor
Difficulty
intermediate
The Days I've Died - My American Heart
Tabbed by:ariz0nagreentea
Email:

Tuning:DROP D

The **strumming pattern** isnt correct.meaning that if i put the power chord 222, it can 
more than just what i put. just listen to the song for yourself.

Intro
e|---------------------------------------------------------------------|
B|---------------------------------------------------------------------|
G|---------------------------------------------------------------------|
D|2-2-2222222------77777777-----10-10-10-10-10-------10----------------|
A|2-2-2222222------77777777-----10-10-10-10-10-------10----------------|
D|2-2-2222222------77777777-----10-10-10-10-10-------10----------------|
      xxxxxxx      xxxxxxxx     xxxxxxxxxxxxxx
e|----------------------------------------|
B|----------------------------------------|
G|----------------------------------------|
D|-2-2-2--(2x)---22222--------------------|
A|-2-2-2---------22222--------------------|
D|-2-2-2---------22222--------------------|

e|---------------------------------------------------------------------------|
B|---------------------------------------------------------------------------|
G|---------------------------------------------------------------------------|
D|-2-2-2--2-2----2-2---5-5---------------------------------------------------|
A|-2-2-2--2-2----2-2---5-5--(2x)---------------------------------------------|
D|-2-2-2--2-2----2-2---5-5---------------------------------------------------|

e|----------------------------------------------------------------------------|
B|----------------------------------------------------------------------------|
G|----------------------------------------------------------------------------|
D|--10101010101010-----1212121212121212---------------------------------------|
A|--10101010101010-----1212121212121212---------------------------------------|
D|--10101010101010-----1212121212121212---------------------------------------|

e|------------------------------------------------------|
B|------------------------------------------------------|
G|------------------------------------------------------|
D|---2-2---2-2--2-2-2--2--2---2---2--2--2--2------------|
A|---2-2---2-2--2-2-2--2--2---2---2--2--2--2------------|
D|---2-2---2-2--2-2-2--2--2---2---2--2--2--2------------|

    Verse
e|----------------------------------------------------------------------------|
B|----------------------------------------------------------------------------|
G|----------------------------------------------------------------------------|
D|---1010101010----00000-----222222-------------------------------------------|
A|---1010101010----00000-----222222----(2x)-----------------------------------|
D|---1010101010----00000-----222222-------------------------------------------|

e|----------------------------------------------------------------------------|
B|----------------------------------------------------------------------------|
G|----------------------------------------------------------------------------|
D|--101010-222----------------------------------------------------------------|
A|--101010-222---(2x)---------------------------------------------------------|
D|--101010-222----------------------------------------------------------------|

e|----------------------------------------------------------------------------|
B|----------------------------------------------------------------------------|
G|----------------------------------------------------------------------------|
D|--22222----7-7-------10------8---10-----------------------------------------|
A|--22222----7-7-------10------8---10-----------------------------------------|
D|--22222----7-7-------10------8---10-----------------------------------------|
     xxxx      x


inevitable part

e|----------------------------------------------------------------------------|
B|----------------------------------------------------------------------------|
G|----------------------------------------------------------------------------|
D|-----2------55555555445---(2x)----------------------------------------------|
A|-----2----------------------------------------------------------------------|
D|-----2----------------------------------------------------------------------|



e|----------------------------------------------------------------------------|
B|----------------------------------------------------------------------------|
G|----------------------------------------------------------------------------|
D|---55-----88-----8------6-------------------------------------------------|
A|---55-----88-----8------6-------------------------------------------------|
D|---55-----88-----8------6------------------------------------------------|



e|----------------------------------------------------------------------------|
B|----------------------------------------------------------------------------|
G|----------------------------------------------------------------------------|
D|--2~----2--------5-----7--------------------------------|
A|--2~----2--------5-----7----------------------
D|--2~----2--------5-----7---------------------------------


solo part thingy effects used soo ?????


e|----0-~--------------/12------10---------------12----10------------
B|---12-~----------------------------10---12----------------10h12p10-
G|-------------------------------------------------------------------
D|-------------------------------------------------------------------
A|-------------------------------------------------------------------
D|-------------------------------------------------------------------




e|---------------------------------------------------------------------------
B|---------------------------------------------------------------------------
G|---------------------------------------------------------------------------
D|--10---12---------------------------------------------------------|
A|--10---12-----------------------------------------------------|
D|--10---12----------------------------------------------------|
     x    x


outro
"we are....."

e|---------------------------------------------------------------------------
B|---------------------------------------------------------------------------
G|---------------------------------------------------------------------------
D|----2---5p0--0---2p0---0---5p0----10------------------------|
A|----2---5p0--0---2p0---0---5p0----10------------------|
D|----2---5p0--0---2p0---0---5p0----10-----------------------|












rough draft =]. will touch up later i promise =]


| /  slide up
| \  slide down
| h  hammer-on
| p  pull-off
| ~  vibrato
| +  harmonic
| x  Mute note
===========================================================================
comments
We did not receive enough feedback on this tab! Please rate:
print report bad tab
1 2 3 4 5
I want to post or [tab]
guest
You may want to rate the tab now too:
select rating
Please do not post tabs as comments. Select "correction" instead!