Oops, an error
Loading. Please wait.

Dont Sleep Tab

version 2
version 2

Intro

Whole song

Interactive

261 views 1 this week
1 commentread comment
1 2 3 4 5
1 last vote to show rating
add to favorites
launch autoscroll
font size
0
reset
how to read this tab
guitar tuner
Autoscroll
slow
fast
+/-
esc
set tempo
stop
Help us to improve Ultimate-Guitar.com Take our survey!
×
Author
Difficulty
Tuning
novice
D A D G B E
-------------------------------------------------------------------------------
                           Don't Sleep-My American Heart
-------------------------------------------------------------------------------
Tabbed by:
Email:

Tuning:Drop D (DADGBe)

e|---------------------------------------------------------------------------|
B|---------------------------------------------------------------------------|
G|---------------------------------------------------------------------------|
D|------0----0--2-4-----------4--77-4----4--------4-4--77777-----------------|
A|------0----0--2-4---77777---4-----4-77-4-77777--4-4------------------------| 
D|------0----0--2-4-----------4-----4----4--------4-4------------------------|

e|---------------------------------------------------------------------------|
B|---------------------------------------------------------------------------|
G|---------------------------------------------------------------------------|
D|--0--(0)-(0)--7--(0)--6-(0)-7-(0)-0-0-7------------------------------------|
A|--0--(0)-(0)--5--(0)--5-(0)-5-(0)-0-0-5------------------------------------|
D|--0--(0)-(0)-----(0)----(0)---(0)-0-0--------------------------------------|



< > let note ring
( ) Palm Mute
| /  slide up
| \  slide down
| h  hammer-on
| p  pull-off
| ~  vibrato
| +  harmonic
| x  Mute note
===============================================================================
Suggest correction
Give kudos to tab author, rate the tab!
1 2 3 4 5
comments
print report bad tab
1 comment total.
0 reply
heyitsthemokid 508 Dec 12, 2006 06:33 PM

NICE WORK BILLY...
NOW DO ANOTHER TAB YEH?
XD

guest
You may want to rate the tab now too:
select rating
Wanna post a correction for this tab? Suggest correction