Oops, an error
Loading. Please wait.

Hit Me With Your Best Shot Tab

1,950 views 1 this week
1 commentread comment
1 2 3 4 5
please rate
add to favorites
launch autoscroll
font size
0
reset
how to read this tab
guitar tuner
Autoscroll
slow
fast
+/-
esc
set tempo
stop
Help us to improve Ultimate-Guitar.com Take our survey!
×
Author
Artist - My American Heart
Song - Hit me with you're best shot
Tabbed by - ariz0nagreentea

MY AMERICAN HEART COVER.

Standard tuning     EADGBe


Intro + Chorus

e|------------------------|------------------------------------|
B|------------------------|------------------------------------|
G|--9---------6-6---------|--9---------6-6--4-4----------------|
D|--9---7-7---6-6---9-9---|--9---7-7---6-6--4-4--7-7--9-9------|
A|--7---7-7---4-4---9-9---|--7---7-7---4-4--2-2--7-7--9-9------|
E|------5-5---------7-7---|------5-5-------------5-5--7-7------|


Verses

e|-----------------------|
B|-----------------------|
G|--9--8--6--------------|
D|--9--8--6---7--9-------|
A|--7--6--4---7--9-------|
E|------------5--7-------|

Guitar solo:

-12h14p12-11h12p11-9h11p9-7---------------------|
------------------------------------------------|
------------------------------999s8-888s6-666-4-|
------------------------------------------------|
------------------------------------------------|
------------------------------------------------|

------------------------------------------------------------------|
-0tr2--0tr4--0tr5-0tr7--5h7(repeat for measure)--7-6-4------------|
---------------------------------------------------------6b8-6--4-|
------------------------------------------------------------------|
------------------------------------------------------------------|
------------------------------------------------------------------|

-14---14--14---14--14--14-------------------------------------|
----12--12---12---12--12--12----------------------------------|
----------------------------------11b13-----9---9----9----9---|
------------------------------------------s9--s9--s9--s11-----|
--------------------------------------------------------------|
--------------------------------------------------------------|

------------------12--------------------|
------------------15----0------0-2-4-5--|
----(4)b6r4------------2b4--------------|
----------------------------------------|
----------------------------------------|
-0--------------------------------------|

Over the start of the third verse play the E as a C chord
barred on the 4th fret, and pick notes
--------------------------------------------------------|
---5-----5-4------2-------------------------------------|
--------------4--4--4--4--------6--4--------4-----------|
-----6---------4-----2-----4--6-----4-----4--4----------|
-------7------------------4------------2--2-----2--4--6-|
--------------------------------------------------------|

enjoy.
Suggest correction
What's this?
You can suggest a correction to this tab. Community and Mods will review your correction and vote to approve or reject it.
comments
We did not receive enough feedback on this tab! Please rate:
print report bad tab
1 2 3 4 5
1 comment total.
0 reply
l..l,_ (o.O) 74 wrote on August 18 2008, 05:50 pm

the fist part rocks

guest
You may want to rate the tab now too:
select rating
Please do not post tabs as comments. Select "correction" instead!