Oops, an error
Loading. Please wait.

How Dirty Boys Get Clean Tab

912 views 1 this week
1 commentread comment
1 2 3 4 5
2 more votes to show rating
add to favorites
launch autoscroll
font size
0
reset
how to read this tab
guitar tuner
Autoscroll
slow
fast
+/-
esc
set tempo
stop
Help us to improve Ultimate-Guitar.com Take our survey!
×
Author
Difficulty
Tuning
intermediate
D A D G B E
I tabbed this all out by ear, its not 100% perfect but it's damn close. Any questions or 
Pgarrido@msad43.org


KEY

h= hammer-on
p= pull-off
b= bend
/= slide up
\= slide down
*= palm mute
~= let ring


                Intro
Guitar 1 (Lead)                                             X2

E|--------------------------------------------------------------|
B|--------------------------------------------------------------|
G|--------------------------------------------------------------|
D|------------------------------6--6-7-6--------6h7--------7-7h9|
A|-------------7--6-6---------------------9--7-------9--7-------|
D|-9--9h11p9-9---------11-9-11----------------------------------|


Guitar 2 (Rhythm)                                 X2       Ending

E|-------------------------------------------------------|--------|
B|-------------------------------------------------------|--------|
G|-------------------------------------------------------|--------|
D|-0--0--0-0-0---2--2--2-2-2---4--4--4-4-4---2--2--2-2-2-|2-2-2-2-|
A|-0--0--0-0-0---2--2--2-2-2---4--4--4-4-4---2--2--2-2-2-|2-2-2-2-|
D|-0--0--0-0-0---2--2--2-2-2---4--4--4-4-4---2--2--2-2-2-|2-2-2-2-|


                  Verse 1

                                                  X2
E|-------------------------------------------------------|
B|-------------------------------------------------------|
G|-------------------------------------------------------|
D|-0--0--0-0-0---2--2--2-2-2---4--4--4-4-4---2--2--2-2-2-|
A|-0--0--0-0-0---2--2--2-2-2---4--4--4-4-4---2--2--2-2-2-|
D|-0--0--0-0-0---2--2--2-2-2---4--4--4-4-4---2--2--2-2-2-|


E|---------------------------------------------------------|
B|---------------------------------------------------------|
G|---------------------------------------------------------|
D|-0-0-0-0-0-0000-2-2-2-2-2-2222-4444-6-6b7-4-2-2h4---2-4--|
A|-0-0-0-0-0-0000-2-2-2-2-2-2222-4444---------------4------|
D|-0-0-0-0-0-0000-2-2-2-2-2-2222-4444----------------------|
   *   * *        *   * *

                                                  X2
E|-------------------------------------------------------|
B|-------------------------------------------------------|
G|-------------------------------------------------------|
D|-0--0--0-0-0---2--2--2-2-2---4--4--4-4-4---2--2--2-2-2-|
A|-0--0--0-0-0---2--2--2-2-2---4--4--4-4-4---2--2--2-2-2-|
D|-0--0--0-0-0---2--2--2-2-2---4--4--4-4-4---2--2--2-2-2-|


E|-------------------------------------------------------------------|
B|-------------------------------------------------------------------|
G|------------------------------------9999/11111111------11111111111-|
D|-0-0-0-0-0-0000-2-2-2-2-2-2222-4424-xxxx-x-x-x-x--4424-x-x-x-x-x-x-|
A|-0-0-0-0-0-0000-2-2-2-2-2-2222-4424-7777/9-9-9-9--4424-9-9-9-9-9-9-|
D|-0-0-0-0-0-0000-2-2-2-2-2-2222-4424---------------4424-------------|
   *   * *        *   * *


                   Chorus
                                                    X4
E|-------------------------------------------------------|
B|-------------------------------------------------------|
G|-------------------------------------------------------|
D|-4--4--4-4-4--2--2--2-2-2--0--0--0-0-0--2--2--2-2-2----|
A|-4--4--4-4-4--2--2--2-2-2--0--0--0-0-0--2--2--2-2-2----|
D|-4--4--4-4-4--2--2--2-2-2--0--0--0-0-0--2--2--2-2-2----|


 [Repeat Intro]

                    Verse 2

E|-------------------------------------------------------------------|
B|-------------------------------------------------------------------|
G|-------------------------------------------------------------------|
D|-------------------------------------------------------------------|
A|------------------------------7~~~~~~~~~~~~~9~~~~~~~~~~~~~~--------|
E|---11~~~~~~~~~~~~9~~~~~~~~~~~~-------------------------------------|


E|--------------------------------------------------------------|
B|--------------------------------------------------------------|
G|--------------------------------------------------------------|
D|------------------------------6--6-7-6--------6h7--------7-7h9|
A|-------------7--6-6---------------------9--7-------9--7-------|
D|-9--9h11p9-9---------11-9-11----------------------------------|


E|-------------------------------------------------------------------|
B|-------------------------------------------------------------------|
G|------------------------------------9999/11111111------11111111111-|
D|-0-0-0-0-0-0000-2-2-2-2-2-2222-4424-xxxx-x-x-x-x--4424-x-x-x-x-x-x-|
A|-0-0-0-0-0-0000-2-2-2-2-2-2222-4424-7777/9-9-9-9--4424-9-9-9-9-9-9-|
D|-0-0-0-0-0-0000-2-2-2-2-2-2222-4424---------------4424-------------|
   *   * *        *   * *


       [Chorus]


                         Solo


E|---------------------------------------------------------------|
B|---------------------------------------------------------------|
G|---------------------------------------------------------------|
D|------------------------------6--6-7-6--------6h7--------9-9h11|
A|-------------7--6-6---------------------9--7-------9--7--------|
D|-9--9h11p9-9---------11-9-11-----------------------------------|

E|-----------------------------------12-14-12-------------------------|
B|--------------13b14-------12-14-12----------14-12-14-12-------------|
G|-11--11-14-11-------14-11-------------------------------14-11-14-11-|
D|--------------------------------------------------------------------|
A|--------------------------------------------------------------------|
E|--------------------------------------------------------------------|


E|-------------------------------------------------14-14-14-14--14--12-14-12-14-|
B|-------------------14-14-14-14--14--12-14-12-14--14-14-14-14--14--12-14-12-14-|
G|----------------11-11-11-11-11--11--11-11-11-11-------------------------------|
D|-14-11-14-11-14---------------------------------------------------------------|
A|------------------------------------------------------------------------------|
E|------------------------------------------------------------------------------|


   [Chorus]

               Outro


E|--------------------------------------------------------------------|
B|--------------------------------------------------------------------|
G|--------------------------------------------------------------------|
D|--0--0--0-00--4-4--2-2--0--0--0-00--4--4--2-4--2-2~~~~~~~~----------|
A|--0--0--0-00--4-4--2-2--0--0--0-00--4--4--2-4--2-2~~~~~~~~----------|
E|--0--0--0-00--4-4--2-2--0--0--0-00--4--4--2-4--2-2~~~~~~~~----------|
       *                     *

       Lyrics

I walked passed the highway late last night,
to try and say goodbye to everyone and everything.
To try and see if you could sing just one last song for me.
And there's so much more that life can bring,
that I just haven't found.
There's a million things that you could change,
a million things that I could say to you.

Seven days and six more nights to go,
till I can find a way to say goodbye to you.
And it's colder than I ever thought it would be.
Yeah, and I just find a way to say goodbye to you.

Stars that I still see from the times,
that you made me so sick, so cold, so alone,
that I can break with just one push of your tongue.

Seven days and six more nights to go,
till I can find a way to say goodbye to you.
And it's colder than I ever thought it would be.
Yeah, and I just find a way to say goodbye to you.

Seven days and six more nights to go,
till I can find a way to say goodbye to you.
And it's colder than I ever thought it would be.
Yeah, and I just find a way to say goodbye to you.
Goodbye to you.
Suggest correction
Give kudos to tab author, rate the tab!
1 2 3 4 5
comments
print report bad tab
1 comment total.
0 reply
heyitsthemokid 508 Dec 02, 2007 01:32 AM

i think the beginning part of the lead intro is supposed to be on the a string. other than that. good tab.

guest
You may want to rate the tab now too:
select rating
Wanna post a correction for this tab? Suggest correction