Oops, an error
Loading. Please wait.

Keys To My Organ Tab

937 views 1 this week
no commentswrite comment
1 2 3 4 5
please rate
add to favorites
launch autoscroll
font size
0
reset
how to read this tab
guitar tuner
Autoscroll
slow
fast
+/-
esc
set tempo
stop
Help us to improve Ultimate-Guitar.com Take our survey!
×
Author
--------------------------------------------
 "The Keys to my Organ" - My American Heart
--------------------------------------------
Tabbed by: Justin RiRaY
Email: Pakman7JR@hotmail.com  AIM: BeatPwner

Tuning: eBGDAD (Drop-D)         

     VERSE

  * GUITAR 1 * 
e|----------------------------------|
B|----------------------------------|
G|--6-8-8---6-8-8-----------8-------|
D|--6-8-8---6-8-8---8-9-9---8-6-6---|
A|--4-6-6---4-6-6---8-9-9---6-6-6---|
D|------------------8-9-9-----6-6---|

  * GUITAR 2 *
e|----------------|
B|--7-7-7-7-(6)---|
G|--8-8-8-8--8----|
D|--x-x-x-x--x----|
A|--6-6-6-6--6----|
D|----------------|
 
  * GUITAR 3 * (2nd half)
e|-------1-2-1-----------6--11-6----|
B|------------------7-7-9-9-----9---|
G|-----3----------8--8-----------7--| X 2
D|-3-4---------4--------------------|
A|----------------------------------|
D|----------------------------------|
 
e|--------------6---11---------|
B|------7---7-9---9---11-9-7---|
G|-----------------------------|
D|--9-9---9--------------------|
A|-----------------------------|
D|-----------------------------|
 
e|-----6-------------6---------|
B|--9p7--9-7-----7-9---9-------|
G|----------8--8---------------|
D|-----------------------------|
A|-----------------------------|
D|-----------------------------|


     Pre-CHORUS (also BRIDGE)

  * GUITAR 1 * 
e|---------------|
B|---------------|
G|--------4------|
D|--1--1--4--6---|
A|--1--1--2--6---|
D|--1--1-----6---|

  * GUITAR 3 * 
e|--9-------------9----------------------|
B|----9-11-6-7------9-11-6-7-9-----------|
G|-------------8-------------------------|
D|---------------------------------------|
A|---------------------------------------|
D|---------------------------------------|
              
e|--9------------9------9-9-9--11111111--|
B|----9-11-6-7-----9-11-111111-11111111--|
G|-------------8-------------------------|
D|---------------------------------------|
A|---------------------------------------|
D|---------------------------------------|


     CHORUS

  * GUITAR 1 *
e|-----------------|
B|-----------------|
G|--6-8--8-8-8-8---|
D|--x-x--x-x-x-x---|
A|--4-6--6-6-6-6---|
D|-----------------|

  * GUITAR 2 *
e|--------------|
B|--------------|
G|-----6--------|
D|--1--6--6--4--|
A|--1--4--6--4--|
D|--1-----6--4--|
 
  * GUITAR 3 * 
e|------------------------------|
B|--------7----------9-7--------|
G|--8-8-8---8-8--8-8------------|
D|------------------------------|
A|------------------------------|
D|------------------------------|

e|------------------------------|
B|--------7---------------------|
G|--8-8-8---8-8-----------------|
D|---------------8-9-8-9-8-9-8--|
A|------------------------------|
D|------------------------------|

  * * GUITAR 3 (last half of 2nd CHORUS) *
e|--------------9---------------|
B|--7-6--7----7-11--------------|
G|---------8--------8-----6-8---|
D|--------------------8-9-------|
A|------------------------------|
D|------------------------------|

  * * GUITAR 3 (OUTRO CHORUS) *
e|----------6--11----------|
B|-----7-7-9-9---11-9-7----|
G|--6-8-8------------------| X 3
D|-------------------------|
A|-------------------------|
D|-------------------------|
 
e|------6-------------------6-----|
B|--9-7---9-7---7-9-----7-9---9-7-|
G|------------8-----6h8-----------|
D|--------------------------------|
A|--------------------------------|
D|--------------------------------|
Suggest correction
Give kudos to tab author, rate the tab!
1 2 3 4 5
comments
print report bad tab
guest
You may want to rate the tab now too:
select rating
Wanna post a correction for this tab? Suggest correction